Behemoth

Coagula

Behemoth

tabs

by  JOAOEWERTON

save to print version add songbook text version e-mail correct tuner
chordsukulelecavacokeyboardtabbassdrumsharmonicaflute Guitar Pro
close

there isn't a video lesson for this song

chords

Coagula

Key:  B More
Coagula Key F#F#
Coagula Key GG
Coagula Key G#G#
Coagula Key AA(one step down)
Coagula Key A#A#(half step down)
Coagula Key BB(original key)
Coagula Key CC(half step up)
Coagula Key C#C#(one step up)
Coagula Key DD
Coagula Key D#D#
Coagula Key EE
Coagula Key FF
	  		
   Let ring.......................................................................| 
c#|-------0----------0----------0----------0----------0-------0-------0-------0-----| 
G#|-----5---5------5---5------5---5------5---5------7-------7-------7-------7-------| 
E |---4----------4----------4----------4----------6-------6-------6-------6---------| 
B |-2----------2----------2----------2----------4-------4-------4-------4-----------| 
F#|---------------------------------------------------------------------------------| 
C#|---------------------------------------------------------------------------------| 

   Let ring...........................................................| 
c#|-------0-------0-------0-------0--------0-------0-------0-------0----| 
G#|-----8-------8-------8-------8-------10------10------10------10------| 
E |---7-------7-------7-------7-------9-------9-------9-------9---------| 
B |-5-------5-------5-------5-------7-------7-------7-------7-----------| 
F#|---------------------------------------------------------------------| 
C#|---------------------------------------------------------------------| 
     


Alternativly these chords could be played as rhytm (This is not how they play it) 

c#|--------------------------------| 
G#|--------------------------------| 
E |--------------------------------| 
B |-2-------4-------5--------7-----| 
F#|-2-------4-------5--------7-----| 
C#|-0-------2-------3--------5-----| 



Ending 
                 
                PM-|      PM-|                   PM-|             PM-|       PM-|                   PM-| 
c#|-----------------------------------------------------------------------------------------------------| 
G#|-----------------------------------------------------------------------------------------------------| 
E |-----------------------------------------------------------------------------------------------------| 
B |-2-2-2-2-2-2-2---2-2-2-2----2-2-2-2-2-2-2-2-2-2----4-4-4-4-4-4-4----4-4-4-4----4-4-4-4-4-4-4-4-4-4---| 
F#|-2-2-2-2-2-2-2---2-2-2-2----2-2-2-2-2-2-2-2-2-2----4-4-4-4-4-4-4----4-4-4-4----4-4-4-4-4-4-4-4-4-4---| 
C#|-0-0-0-0-0-0-0---0-0-0-0----0-0-0-0-0-0-0-0-0-0----2-2-2-2-2-2-2----2-2-2-2----2-2-2-2-2-2-2-2-2-2---| 
   (Use down-up strumming pattern, see 1:29 in video) 
                
                PM-|       PM-|                   PM-|             PM-|       PM-|                   PM-| 
c#|------------------------------------------------------------------------------------------------------| 
G#|------------------------------------------------------------------------------------------------------| 
E |------------------------------------------------------------------------------------------------------| 
B |-5-5-5-5-5-5-5----5-5-5-5----5-5-5-5-5-5-5-5-5-5----7-7-7-7-7-7-7----7-7-7-7----7-7-7-7-7-7-7-7-7-7---| 
F#|-5-5-5-5-5-5-5----5-5-5-5----5-5-5-5-5-5-5-5-5-5----7-7-7-7-7-7-7----7-7-7-7----7-7-7-7-7-7-7-7-7-7---| 
C#|-3-3-3-3-3-3-3----3-3-3-3----3-3-3-3-3-3-3-3-3-3----5-5-5-5-5-5-5----5-5-5-5----5-5-5-5-5-5-5-5-5-5---| 

        
                PM-|       PM-|                   PM-|             PM-|       PM-|                   PM-| 
c#|------------------------------------------------------------------------------------------------------| 
G#|------------------------------------------------------------------------------------------------------| 
E |------------------------------------------------------------------------------------------------------| 
B |-2-2-2-2-2-2-2----2-2-2-2----2-2-2-2-2-2-2-2-2-2----2-2-2-2-2-2-2----2-2-2-2----2-2-2-2-2-2-2-2-2-2---| 
F#|-2-2-2-2-2-2-2----2-2-2-2----2-2-2-2-2-2-2-2-2-2----2-2-2-2-2-2-2----2-2-2-2----2-2-2-2-2-2-2-2-2-2---| 
C#|-0-0-0-0-0-0-0----0-0-0-0----0-0-0-0-0-0-0-0-0-0----0-0-0-0-0-0-0----0-0-0-0----0-0-0-0-0-0-0-0-0-0---| 



************************************ 

| PM Palm mute 

************************************ 
		  

auto scroll beats size up size down change color hide chords drawings
tab show chords e-chords YouTube Clip e-chords hide all tabs e-chords go to top tab

share