Before Their Eyes

Revival

Before Their Eyes

tabs

by  TERCMORAES

save to print version add songbook text version e-mail correct tuner
chordsukulelecavacokeyboardtabbassdrumsharmonicaflute Guitar Pro
close

there isn't a video lesson for this song

chords

Revival

Key:  B More
Revival Key F#F#
Revival Key GG
Revival Key G#G#
Revival Key AA(one step down)
Revival Key A#A#(half step down)
Revival Key BB(original key)
Revival Key CC(half step up)
Revival Key C#C#(one step up)
Revival Key DD
Revival Key D#D#
Revival Key EE
Revival Key FF
	  		


Tuning: Drop B (B F# B E G# C#) 


Intro 
Guitar 1: 
C#||---------------------------------------------|----------------------------------------| 
G#||---------------------------------------------|----------------------------------------| 
E ||---------------------------------------------|----------------------------------------| 
B ||--12-----------------------------------------|--12------------------------------------| 
F#||---------------------------------------------|---------------------------------12\0~--| 
B ||-----13-12-0-12-13-0-15-0-13-0-0-12-0-10-12--|-----13-12-0-12-13-0-15-0-13-0-0-12\1~--| 


C#||---------------------------------------------|-------------------------| 
G#||---------------------------------------------|-------------------------| 
E ||---------------------------------------------|-------------------------| 
B ||--12-----------------------------------------|--12---------------------| 
F#||---------------------------------------------|-------------------------| 
B ||-----13-12-0-12-13-0-15-0-13-0-0-12-0-10-12--|-----13-12-0-12-13-0-15--| 



Pre-Verse 
Guitar 1/2: 
C#||---------------------------------------------|----------------------------------------| 
G#||---------------------------------------------|----------------------------------------| 
E ||---------------------------------------------|----------------------------------------| 
B ||--12-----------------------------------------|--12------------------------------------| 
F#||---------------------------------------------|---------------------------------12\0~--| 
B ||-----13-12-0-12-13-0-15-0-13-0-0-12-0-10-12--|-----13-12-0-12-13-0-15-0-13-0-0-12\1~--| 


C#||---------------------------------------------|----------------------------------------| 
G#||---------------------------------------------|----------------------------------------| 
E ||---------------------------------------------|----------------------------------------| 
B ||--12-----------------------------------------|--12------------------------------------| 
F#||---------------------------------------------|------------------------00000~--00000~--| 
B ||-----13-12-0-12-13-0-15-0-13-0-0-12-0-10-12--|-----13-12-0-12-13-0~---11111~--00000~--| 
                                                                          ....    .... 



Verse 
Guitar 1/2: 
C#||-------------------------------------------------------------------| 
G#||-------------------------------------------------------------------| 
E ||-------------------------------------------------------------------| 
B ||--------------------------------------------12---------------------| 
F#||--000-0------------------------------------------------------------| 
B ||--000-0-0-0---0~---0-0-00---0~---0-0--0--0-----13-12-0-10-0-10-12--| 
      ... .            .             . 


C#||-----------------------------------------------------------------| 
G#||-----------------------------------------------------------------| 
E ||-----------------------------------------------------------------| 
B ||--------------------------------------------12-------------------| x2 
F#||--000-0-------------------------------------------------0-0-0-0--| 
B ||--000-0-0-0---1~---0-0-00---0~---0-0--0--0-----13-12-0--1-1-1-1--| 
      ... .            .             .                      . . . . 



Chorus 
Guitar 1/2: 
C#||--------------------------------------------------------------------| 
G#||--------------------------------------------------------------------| 
E ||--------------------------------------------------------------------| 
B ||--------------------------------------------------------------------| 
F#||--------------------------------------------------------------------| 
B ||--0000000000000000777777777777555588888888888888881111111111113333--| 


Guitar 1: 
C#||------------------------------------------------| 
G#||------------------------------------------------| 
E ||--------------------14-14-14--------------------| 
B ||--12-12-12-10-10-10----------0-0-0-10-10-12-12--| x3 
F#||------------------------------------------------| 
B ||------------------------------------------------| 


C#||---------------------------------------------------------| 
G#||---------------------------------------------------------| 
E ||--14-14-14-14-14-14-14-14-12-12-12-12-10-10-10-10--------| 
B ||--------------------------------------------------(12~)--| 
F#||---------------------------------------------------------| 
B ||---------------------------------------------------------| 


Guitar 2: 
C#||--------------------------------------------------------------------| 
G#||--------------------------------------------------------------------| 
E ||--------------------------------------------------------------------| 
B ||--------------------------------------------------------------------| 
F#||--------------------------------------------------------------------| 
B ||--0000000000000000777777777777555588888888888888881111111111113333--| 



Pre-Verse 
Guitar 1/2: 
C#||---------------------------------------------|----------------------------------------| 
G#||---------------------------------------------|----------------------------------------| 
E ||---------------------------------------------|----------------------------------------| 
B ||--12-----------------------------------------|--12------------------------------------| 
F#||---------------------------------------------|---------------------------------12\0~--| 
B ||-----13-12-0-12-13-0-15-0-13-0-0-12-0-10-12--|-----13-12-0-12-13-0-15-0-13-0-0-12\1~--| 


C#||---------------------------------------------|----------------------------------------| 
G#||---------------------------------------------|----------------------------------------| 
E ||---------------------------------------------|----------------------------------------| 
B ||--12-----------------------------------------|--12------------------------------------| 
F#||---------------------------------------------|------------------------00000~--00000~--| 
B ||-----13-12-0-12-13-0-15-0-13-0-0-12-0-10-12--|-----13-12-0-12-13-0~---11111~--00000~--| 
                                                                          ....    .... 


Verse 
Guitar 1/2: 
C#||---------------------------------------------------------| 
G#||---------------------------------------------------------| 
E ||---------------------------------------------------------| 
B ||--0~-----------------------------------------------------| 
F#||--0~-----------------------------------------------------| 
B ||--0~----12-8---11--7--5~--5-5-5-5-5-5-5-8-8-8-8-1-1-1-1--| 


C#||---------------------------------------------------------| 
G#||---------------------------------------------------------| 
E ||---------------------------------------------------------| 
B ||--0~-----------------------------------------------------| 
F#||--0~--------------------------------------------1-3-3-3--| 
B ||--0~----12-8---11--7--5~--5-5-5-5-5-5-5-1-1-1-1-1-3-3-3--| 
                                                    . . . . 

C#||---------------------------------------------------------| 
G#||---------------------------------------------------------| 
E ||---------------------------------------------------------| 
B ||--0~-----------------------------------------------------| 
F#||--0~-----------------------------------------------------| 
B ||--0~----12-8---11--7--5~--5-5-5-5-5-5-5-8-8-8-8-1-1-1-1--| 


C#||-----------------------------------------------------------| 
G#||-----------------------------------------------------------| 
E ||-----------------------------------------------------------| 
B ||--0~-------------------------------------------------------| 
F#||--0~--------------------------------------------1-3-3-3-0--| 
B ||--0~----12-8---11--7--5~--5-5-5-5-5-5-5-1-1-1-1-1-3-3-3-0--| 
                                                    . . . . . 



Chorus 
Guitar 1/2: 
C#||--------------------------------------------------------------------| 
G#||--------------------------------------------------------------------| 
E ||--------------------------------------------------------------------| 
B ||--------------------------------------------------------------------| 
F#||--------------------------------------------------------------------| 
B ||--0000000000000000777777777777555588888888888888881111111111113333--| 


Guitar 1: 
C#||------------------------------------------------| 
G#||------------------------------------------------| 
E ||--------------------14-14-14--------------------| 
B ||--12-12-12-10-10-10----------0-0-0-10-10-12-12--| x3 
F#||------------------------------------------------| 
B ||------------------------------------------------| 


C#||---------------------------------------------------| 
G#||---------------------------------------------------| 
E ||--14-14-14-14-14-14-14-14-12-12-12-12-10-10-10-10--| 
B ||---------------------------------------------------| 
F#||---------------------------------------------------| 
B ||---------------------------------------------------| 


Guitar 2: 
C#||--------------------------------------------------------------------| 
G#||--------------------------------------------------------------------| 
E ||--------------------------------------------------------------------| 
B ||--------------------------------------------------------------------| 
F#||--------------------------------------------------------------------| 
B ||--0000000000000000777777777777555588888888888888881111111111113333--| 



Bridge 
Guitar 1: 
C#||-----------------------------------------|-----------------------------------------------| 
G#||-----------------------------------------|-----------------------------------------------| 
E ||-----------------------------------------|-----------------------------------------------| 
B  
||---------------------------------7~------|-------------7---77------7---77------3~-3~-3~--| x2 
F#||---------------------------3---------3~--|-------------------------------------3~-3~-3~--| 
B ||--00--0------00----0--00-----5~----------|--88--8--------8-----------8---------3~-3~-3~--| 


Guitar 2: 
C#||---------------------------------------------------------------------------| 
G#||--6-6-6-6-6-6-6-6-6-6-6-6-6-6-6-6-10-10-10-10-10-10-10-10-8-8-8-8-8-8-8-8--| 
E ||---------------------------------------------------------------------------| 
B ||---------------------------------------------------------------------------| 
F#||---------------------------------------------------------------------------| 
B ||---------------------------------------------------------------------------| 
      . . . . . . . . . . . . . . . . .  .  .  .  .  .  .  .  . . . . . . . . 

C#||-------------------------------------------------------------------------------------------| 
G#||--11-11-11-11-11-11-11-11-11-11-11-11-11-11-11-11-10-10-10-10-10-10-10-10-8-8-8-8-8-8-8-8--| 
E ||-------------------------------------------------------------------------------------------| 
B  
||-------------------------------------------------------------------------------------------| x2 
F#||-------------------------------------------------------------------------------------------| 
B ||-------------------------------------------------------------------------------------------| 
      .  .  .  .  .  .  .  .  .  .  .  .  .  .  .  .  .  .  .  .  .  .  .  .  . . . . . ... 


Guitar 2 (Dub): 
C#||---------------------------------------------------------------------------| 
G#||---------------------------------------------------------------------------| 
E ||--7-7-7-7-7-7-7-7-7-7-7-7-7-7-7-7-10-10-10-10-10-10-10-10-9-9-9-9-9-9-9-9--| 
B ||---------------------------------------------------------------------------| 
F#||---------------------------------------------------------------------------| 
B ||---------------------------------------------------------------------------| 
      . . . . . . . . . . . . . . . . .  .  .  .  .  .  .  .  . . . . . . . . 


C#||-------------------------------------------------------------------------------------------| 
G#||--12-12-12-12-12-12-12-12-12-12-12-12-12-12-12-12-10-10-10-10-10-10-10-10-9-9-9-9-9-9-9-9--| 
E ||-------------------------------------------------------------------------------------------| 
B  
||-------------------------------------------------------------------------------------------| x2 
F#||-------------------------------------------------------------------------------------------| 
B ||-------------------------------------------------------------------------------------------| 
      .  .  .  .  .  .  .  .  .  .  .  .  .  .  .  .  .  .  .  .  .  .  .  .  . . . . . ... 




Guitar 1/2: 
C#||-----------------------------------------|---------------------------------------------------| 
G#||-----------------------------------------|---------------------------------------------------| 
E ||-----------------------------------------|---------------------------------------------------| 
B ||--00--0~-------------------------7~------|--88--8~-----7---77------7---77--------------------| 
F#||--00--0~-------------------3---------3~--|--88--8~------------------------------8-8-----7-7--| 
B ||--00--0~---------------------5~----------|--88--8~-------8-----------8------5-5-----3-3------| 



Chorus 
Guitar 1/2: 
C#||--------------------------------------------------------------------| 
G#||--------------------------------------------------------------------| 
E ||--------------------------------------------------------------------| 
B ||--------------------------------------------------------------------| 
F#||--------------------------------------------------------------------| 
B ||--0000000000000000777777777777555588888888888888881111111111113333--| 


Guitar 1: 
C#||------------------------------------------------| 
G#||------------------------------------------------| 
E ||--------------------14-14-14--------------------| 
B ||--12-12-12-10-10-10----------0-0-0-10-10-12-12--| x3 
F#||------------------------------------------------| 
B ||------------------------------------------------| 


C#||---------------------------------------------------| 
G#||---------------------------------------------------| 
E ||--14-14-14-14-14-14-14-14-12-12-12-12-10-10-10-10--| 
B ||---------------------------------------------------| 
F#||---------------------------------------------------| 
B ||---------------------------------------------------| 


Guitar 2: 
C#||--------------------------------------------------------------------| 
G#||--------------------------------------------------------------------| 
E ||--------------------------------------------------------------------| 
B ||--------------------------------------------------------------------| 
F#||--------------------------------------------------------------------| 
B ||--0000000000000000777777777777555588888888888888881111111111113333--| 



Outro 
Guitar 1/2: 
C#||-------------------------------------------------------------------| 
G#||-------------------------------------------------------------------| 
E ||-------------------------------------------------------------------| 
B ||--------------------------------------------12---------------------| 
F#||--000-0------------------------------------------------------------| 
B ||--000-0-0-0---0~---0-0-00---0~---0-0--0--0-----13-12-0-10-0-10-12--| 
      ... .            .             . 


C#||-----------------------------------------------------------------| 
G#||-----------------------------------------------------------------| 
E ||-----------------------------------------------------------------| 
B ||--------------------------------------------12-------------------| 
F#||--000-0-------------------------------------------------0-0-0-0--| 
B ||--000-0-0-0---1~---0-0-00---0~---0-0--0--0-----13-12-0--1-1-1-1--| 
      ... .            .             .                      . . . . 




Tablature Legend 
---------------- 
 h   hammer-on 
 p   pull-off 
 b   bend 
 pb  pre-bend 
 r   release bend 
 ~   hold / vibrato 
 .   palm mute 
 /   slide up 
 \   slide down 
 *   pinch harmonic 
 '   natural harmonic 
 x   mute note 
 T   tap 
		  

See also:

tabs Bon Jovi - It's My Life tabs Kiss - Forever tabs Aerosmith - Dream On tabs Foo Fighters - Everlong (acústico) tabs The Doors - People Are Strange tabs The Offspring - All I Want
e-chords

Other versions:

tabs Allman Brothers Band - Revival tabs Before Their Eyes - Revival tabs Every Time I Die - Revival Mode
auto scroll beats size up size down change color hide chords drawings
tab show chords e-chords YouTube Clip e-chords hide all tabs e-chords go to top tab

share