save to print version add songbook text version e-mail correct tuner
chordsukulelecavacokeyboardtabbassdrumsharmonicaflute Guitar Pro
close

there isn't a video lesson for this song

chords

Faith

	  		


Intro 
Guitar 1/2: 
D||--------------------------------------|--------------------------------------| 
A||------3h5--0-------0------------------|------3h5--0-------0------------------| 
F||------4----4-------3h4-0--------------|------4----4-------3h4-0--------------| 
C||--2----------2-----------2---5-5-5-0--|--2----------2-----------2---5~--1~---| x2 
G||--2----------2-----------2---5-5-5-0--|--2----------2-----------2---5~--1~---| 
C||--2----------2-----------2---5-5-5-0--|--2----------2-----------2---5~--1~---| 



Verse 
Guitar 1/2: 
D||--------------------------------------|-------------------------------------| 
A||------3--5p0--------------------------|------3--5p0-------------------------| 
F||------4--4-----3-----4\2--------------|------4--4-----3-----4\2-------------| 
C||--2----------2------------2/-5-5-5-0--|--2----------2------------2/-5~--1~--| x2 
G||--2----------2------------2/-5-5-5-0--|--2----------2------------2/-5~--1~--| 
C||--2----------2------------2/-5-5-5-0--|--2----------2------------2/-5~--1~--| 



Pre-Chorus 
Guitar 1: 
D||----------------------------------------------------------------| 
A||----------------------------------------------------------------| 
F||----------------------------------------------------------------| 
C||--2-------------------------------------------------------------| 
G||--2-------------------------------------------------------------| 
C||--2--xxxxxxxxxxxxxxxxxxxxxxxxxxxxxxxxxxxxxxxxxxxxxxxxxxxxxxxxx--| 


Guitar 2: 
D||----------------------------------------------------------------| 
A||----------------------------------------------------------------| 
F||----------------------------------------------------------------| 
C||--2--------------------------2--2-------------------------------| 
G||--2--------------------------2--2-------------------------------| 
C||--2--------------------------2--2-------------------------------| 



Chorus 
Guitar 1: 
D||-----------------------------------------------------------------------| 
A||----------3------------------------------------------------------------| 
F||----------4------------------------------------------------------------| 
C||--2~--2~----2-2-0~--0-0~--0-0-0-0--7~--7~--7-7-7-5~--5----5-5----------| x2 
G||--2~--2~----2-2-0~--0-0~--0-0-0-0--7~--7~--7-7-7-5~--5----5-5---7------| 
C||--2~--2~----2-2-0~--0-0~--0-0-0-0--7~--7~--7-7-7-5~--5-x--5-5-----5-0--| 


Guitar 2: 
D||-----------------------------------------------------------------------------------| 
A||-----------------------------------------------------------------------------------| 
F||--9-9-9-11-11-11-12-12-12-12-12-12-12-12----------9-9-9-11-11-11----------9-9-9-9--| 
C||-----------------------------------------12-12-12----------------12-12-12----------| x2 
G||-----------------------------------------------------------------------------------| 
C||-----------------------------------------------------------------------------------| 



Pre-Verse 
Guitar 1/2: 
D||--------------------------------------|--------------------------------------| 
A||------3h5--0-------0------------------|------3h5--0-------0------------------| 
F||------4----4-------3h4-0--------------|------4----4-------3h4-0--------------| 
C||--2----------2-----------2---5-5-5-0--|--2----------2-----------2---5~--1~---| x2 
G||--2----------2-----------2---5-5-5-0--|--2----------2-----------2---5~--1~---| 
C||--2----------2-----------2---5-5-5-0--|--2----------2-----------2---5~--1~---| 



Verse 
Guitar 1/2: 
D||--------------------------------------| 
A||--------------------------------------| 
F||--------------------------------------| 
C||--2----------------------------2--2~--| 
G||--2----------------------------2--2~--| 
C||--2----------------------------2--2~--| 


Guitar 1: 
D||--------------------------------------|---------------------------------| 
A||------3--5p0--------------------------|--3--5p0-------------------------| 
F||------4--4-----3-----4\2--------------|--4--4-----3-----4\2-------------| 
C||--2----------2------------2/-5-2--2~--|---------2------------2/-5~--1~--| 
G||--2----------2------------2/-5-2--2~--|---------2------------2/-5~--1~--| 
C||--2----------2------------2/-5-2--2~--|---------2------------2/-5~--1~--| 


Guitar 2: 
D||--------------------------------------| 
A||--------------------------------------| 
F||--------------------------------------| 
C||--2----------------------------2--2~--| 
G||--2----------------------------2--2~--| 
C||--2----------------------------2--2~--| 



Guitar 1/2: 
D||--------------------------------------|-------------------------------------| 
A||------3--5p0--------------------------|------3--5p0-------------------------| 
F||------4--4-----3-----4\2--------------|------4--4-----3-----4\2-------------| 
C||--2----------2------------2/-5-5-5-0--|--2----------2------------2/-5~--1~--| 
G||--2----------2------------2/-5-5-5-0--|--2----------2------------2/-5~--1~--| 
C||--2----------2------------2/-5-5-5-0--|--2----------2------------2/-5~--1~--| 



Guitar 1: 
D||--------------------------------------|-------------------------------------| 
A||--------------------------------------|-------------------------------------| 
F||--9-9-9-9-9-9-9-9-9-9-9-9-12-12-7-7---|--9-9-9-9-9-9-9-9-9-9-9-9-14-14-8-8--| 
C||--x-x-x-x-x-x-x-x-x-x-x-x-x--x--x-x---|--x-x-x-x-x-x-x-x-x-x-x-x-x--x--x-x--| 
G||--7-7-7-7-7-7-7-7-7-7-7-7-10-10-5-5---|--7-7-7-7-7-7-7-7-7-7-7-7-12-12-6-6--| 
C||--------------------------------------|-------------------------------------| 


Guitar 2: 
D||--------------------------------------|-------------------------------------| 
A||------3--5p0--------------------------|------3--5p0-------------------------| 
F||------4--4-----3-----4\2--------------|------4--4-----3-----4\2-------------| 
C||--2----------2------------2/-5-5-5-0--|--2----------2------------2/-5~--1~--| 
G||--2----------2------------2/-5-5-5-0--|--2----------2------------2/-5~--1~--| 
C||--2----------2------------2/-5-5-5-0--|--2----------2------------2/-5~--1~--| 



Chorus 
Guitar 1: 
D||-----------------------------------------------------------------------| 
A||----------3------------------------------------------------------------| 
F||----------4------------------------------------------------------------| 
C||--2~--2~----2-2-0~--0-0~--0-0-0-0--7~--7~--7-7-7-5~--5----5-5----------| x2 
G||--2~--2~----2-2-0~--0-0~--0-0-0-0--7~--7~--7-7-7-5~--5----5-5---7------| 
C||--2~--2~----2-2-0~--0-0~--0-0-0-0--7~--7~--7-7-7-5~--5-x--5-5-----5-0--| 


Guitar 2: 
D||-----------------------------------------------------------------------------------| 
A||-----------------------------------------------------------------------------------| 
F||--9-9-9-11-11-11-12-12-12-12-12-12-12-12----------9-9-9-11-11-11----------9-9-9-9--| 
C||-----------------------------------------12-12-12----------------12-12-12----------| x2 
G||-----------------------------------------------------------------------------------| 
C||-----------------------------------------------------------------------------------| 



Bridge 
Guitar 1: 
D||----------------------------------------------------------------------------| 
A||----------------------------------------------------------------------------| 
F||----------------------------------------------------------------------------| 
C||--2-0-2---------2-0-2--------------------2-0-2---------2-0-2----------------| 
G||--2-0-2---------2-0-2--------------------2-0-2---------2-0-2----------------| 
C||--2-0-2--'2-'2--2-0-2--'2'2-'2-'2-'2-'2--2-0-2--'2-'2--2-0-2-x-x-x-x-x-x-x--| 


Guitar 1: 
D||----------------------------------------------------------------------------| 
A||----------------------------------------------------------------------------| 
F||----------------------------------------------------------------------------| 
C||--2-0-2---------2-0-2--------------------2-0-2---------2-0-2----------------| 
G||--2-0-2---------2-0-2--------------------2-0-2---------2-0-2----------------| 
C||--2-0-2--'3-'3--2-0-2--'3'3-'3-'3-'3-'3--2-0-2--'3-'3--2-0-2----------------| 



Guitar 1: 
D||--------------------------------------| 
A||--------------------------------------| 
F||--------------------------------------| 
C||--2-0-2---------2-0-2-----------------| 
G||--2-0-2---------2-0-2-----------------| 
C||--2-0-2--'2-'2--2-0-2--x-x-x--xxxxxx--| 


Guitar 1: 
D||--------------------------------------| 
A||--------------------------------------| 
F||--------------------------------------| 
C||--2-0-2---------2-0-2-----------------| 
G||--2-0-2---------2-0-2-----------------| 
C||--2-0-2--'3-'3--2-0-2-----------------| 



Guitar 1/2: 
D||-----------------------------------------------------------------------| 
A||-----------------------------------------------------------------------| 
F||-----------------------------------------------------------------------| 
C||--2-0-2-------2-0-2-----------------2-0-2-------2-0-2------------------| 
G||--2-0-2-------2-0-2-----------------2-0-2-------2-0-2------------------| 
C||--2-0-2-0-0-0-2-0-2-0-0-0-0-0-0-0-0-2-0-2-0-0-0-2-0-2-0-0-0-0-0-0-0-0--| 
           . . .       . . . . . . . .       . . .       . . . . . . . . 



Interlude 
Guitar 1: 
D||-----------------------------------------------------------------------| 
A||----------5------------------------------------------------------------| 
F||----------4------------------------------------------------------------| 
C||-----------------------------------------------------------------------| x2 
G||----------------------------------------------------------------7------| 
C||--2~--2~----2-2-0~--0-0~--0-0-0-0--7~--7~--7-7-7-5~--5-x--5-5-----5-0--| 



Chorus 
Guitar 1: 
D||-----------------------------------------------------------------------| 
A||----------3------------------------------------------------------------| 
F||----------4------------------------------------------------------------| 
C||--2~--2~----2-2-0~--0-0~--0-0-0-0--7~--7~--7-7-7-5~--5----5-5----------| x4 
G||--2~--2~----2-2-0~--0-0~--0-0-0-0--7~--7~--7-7-7-5~--5----5-5---7------| 
C||--2~--2~----2-2-0~--0-0~--0-0-0-0--7~--7~--7-7-7-5~--5-x--5-5-----5-0--| 


Guitar 2: 
D||--------------------------------------------------------------------------------------------| 
A||--------------------------------------------------------------------------------------------| 
F||--11h12-12-12-12-12-12-12-9-9-9-11-11-11-11-11-11h12-12-12-12-12-12-12-----------9-9-9-9-9--| 
C||-----------------------------------------------------------------------12~--12-x------------| x3 
G||--------------------------------------------------------------------------------------------| 
C||--------------------------------------------------------------------------------------------| 


D||------------------------------------------------12---------14-------16------| 
A||------------------------------------------------15b 17~----17b19~---19b20~--| 
F||--11h12-12-12-12-12-12-12-9-9-9-11-11-11-11-11------------------------------| 
C||----------------------------------------------------------------------------| 
G||----------------------------------------------------------------------------| 
C||----------------------------------------------------------------------------| 



Outro 
Guitar 1/2: 
D||--------------------------------------------------------------| 
A||--------------------------------------------------------------| 
F||--------------------------------------------------------------| 
C||--2-0-2---------2-0-2--------------------2-0-2---------2-0-2--| 
G||--2-0-2---------2-0-2--------------------2-0-2---------2-0-2--| 
C||--2-0-2---------2-0-2--------------------2-0-2---------2-0-2--| 



Guitar 1: 
D||--------------------------------------------------------------| 
A||--------------------------------------------------------------| 
F||--------------------------------------------------------------| 
C||--2-0-2---------2-0-2--------------------2-0-2---------2-0-2--| 
G||--2-0-2---------2-0-2--------------------2-0-2---------2-0-2--| 
C||--2-0-2---------2-0-2--'2'2-'2-'2-'2-'2--2-0-2--'2-'2--2-0-2--| 


Guitar 1: 
D||--------------------------------------------------------------| 
A||--------------------------------------------------------------| 
F||--------------------------------------------------------------| 
C||--2-0-2---------2-0-2--------------------2-0-2---------2-0-2--| 
G||--2-0-2---------2-0-2--------------------2-0-2---------2-0-2--| 
C||--2-0-2---------2-0-2--'3'3-'3-'3-'3-'3--2-0-2--'3-'3--2-0-2--| 




Tablature Legend 
---------------- 
 h   - hammer-on 
 p   - pull-off 
 b   - bend 
 r   - release bend 
 *   - pinch harmonic 
 '   - natural harmonic 
 x   - mute note 
 .   - palm mute 
 /   - slide down 
 \   - slide up 
		  

auto scroll beats size up size down change color hide chords drawings
tab show chords e-chords YouTube Clip e-chords hide all tabs e-chords go to top tab

share