Before Their Eyes

Everything

Before Their Eyes

tabs

by  GUSTSILVA

save to print version add songbook text version e-mail correct tuner
chordsukulelecavacokeyboardtabbassdrumsharmonicaflute Guitar Pro
close

there isn't a video lesson for this song

chords

Everything

	  		Tabbed by: Joshua Garcia ([email protected]) 

Tabs for the song: Everything by Before Their Eyes 
Please rate and let me know if you have any corrections. Thank you. 


Tuning: Drop C (C G C F A D) 


Intro 
Guitar 1: 
D||---------------0~-------------------0~------------------0~-----------------7~--| 
A||---------------3~-------------------5~------------------7~-----------------7~--| 
F||-------------------------------------------------------------------------------| 
C||----------2~-------------------4~------------------5~-----------------5~-------| x3 
G||--/3~---3--------------/5~---5-------------/7~---7-------------7~---7----------| 
C||-------------------------------------------------------------------------------| 


Guitar 2: 
D||--'7~----------------|--7~----10~-------10~--| 
A||---------'7~----'7~--|--7~--------8-7-8~-----| 
F||----------------'5~--|-----------------------| 
C||---------------------|-----------------------| x3 
G||---------------------|-----------------------| 
C||---------------------|-----------------------| 



Verse 
Guitar 1: 
D||---------------0~-------------------0~------------------0~-----------------7~--| 
A||---------------3~-------------------5~------------------7~-----------------7~--| 
F||-------------------------------------------------------------------------------| 
C||----------2~-------------------4~------------------5~-----------------5~-------| 
G||--/3~---3--------------/5~---5-------------/7~---7-------------7~---7----------| 
C||-------------------------------------------------------------------------------| 


Guitar 2: 
D||--7~----10~-------10~--| 
A||--7~--------8-7-8~-----| 
F||-----------------------| 
C||-----------------------| 
G||-----------------------| 
C||-----------------------| 


Guitar 2 (Dub): 
D||--------------------------------------------------------------------| 
A||--------------------------------------------------------------------| 
F||--0000000000000000000000000000000000000000000000000000000000000000--| 
C||--5555555555555555555555555555555555555555555555555555555555555555--| 
G||--7777777777777777777777777777777777777777777777777777777777777777--| 
C||--------------------------------------------------------------------| 



Pre-Chorus 
Guitar 1/2: 
D||-------------------------------------------------------------------| 
A||-------------------------------------------------------------------| 
F||--0~------------------------------0~-------------------------------| 
C||--2~--2-2-2-2-2-2-2-2-2-2-2-2-2-2-4~--4-4-4-4-4-4-4-4-4-4-4-4-4-4--| 
G||--3~--3-3-3-3-3-3-3-3-3-3-3-3-3-3-5~--5-5-5-5-5-5-5-5-5-5-5-5-5-5--| 
C||-------------------------------------------------------------------| 
         . . . . . . .                   . . . . . . . 

D||-----------------------------------------------------------| 
A||-----------------------------------------------------------| 
F||-----------------------------------------------------------| 
C||--5~--5-5-5-5-5-5-5-5-5-5-5-5-5-5-5-5-5-5-5-5-5-5-5-5-5-5--| 
G||--7~--7-7-7-7-7-7-7-7-7-7-7-7-7-7-7-7-7-7-7-7-7-7-7-7-7-7--| 
C||-----------------------------------------------------------| 
         . . . . . . . 

D||---------| 
A||---------| 
F||---------| 
C||--5---5--| 
G||--7---7--| 
C||---------| 



Chorus 
Guitar 1/2: 
D||---------------------------------------|---------------------------------------| 
A||---------------------------------------|---------------------------------------| 
F||--------5---5---5~-----3~---5~-----5~--|--------7---7---7~-----5~---7~-----7~--| 
C||--------5---5---5~-----5~---5~-----5~--|--------7---7---7~-----5~---7~-----7~--| 
G||--3333333---3---3~--3333~---3~--3333~--|--5555555---5---5~--5555~---5~--5555~--| 
C||---------------------------------------|---------------------------------------| 
     .....             ...         ...       .....             ...         ... 

D||---------------------------------------------------------------------| 
A||---------------------------------------------------------------------| 
F||---------------------------------------------------------------------| 
C||--2-2-2-2---0---2~---2-2-0-2/5-5-5-2-2-2-2---0---2~---2-2-0-2/5-5-5--| 
G||--2-2-2-2---0---2~---2-2-0-2/5-5-5-2-2-2-2---0---2~---2-2-0-2/5-5-5--| 
C||--2-2-2-2---0---2~---2-2-0-2/5-5-5-2-2-2-2---0---2~---2-2-0-2/5-5-5--| 



Guitar 1: 
D||-----------------------------------------------------------------------------------| 
A||-----------------------------------------------------------------------------------| 
F||--9-9-9-9-9-9-9-9-9-9-9-9-9-9-9-9-11-11-11-11-11-11-11-11-11-11-11-11-11-11-11-11--| 
C||--x-x-x-x-x-x-x-x-x-x-x-x-x-x-x-x-x--x--x--x--x--x--x--x--x--x--x--x--x--x--x--x---| 
G||--7-7-7-7-7-7-7-7-7-7-7-7-7-7-7-7-9--9--9--9--9--9--9--9--9--9--9--9--9--9--9--9---| 
C||-----------------------------------------------------------------------------------| 


D||---------------------------------------------------| 
A||---------------------------------------------------| 
F||--12-12-12-12-12-12-12-12-12-12-12-12-12-12-12-12--| 
C||--x--x--x--x--x--x--x--x--x--x--x--x--x--x--x--x---| 
G||--10-10-10-10-10-10-10-10-10-10-10-10-10-10-10-10--| 
C||---------------------------------------------------| 


D||---------------------------------------------------| 
A||---------------------------------------------------| 
F||--12-12-12-12-12-12-12-12-12-12-12-12-12-12-12-12--| 
C||--x--x--x--x--x--x--x--x--x--x--x--x--x--x--x--x---| 
G||--10-10-10-10-10-10-10-10-10-10-10-10-10-10-10-10--| 
C||---------------------------------------------------| 


Guitar 2: 
D||-------------------------------------------------------------------| 
A||-------------------------------------------------------------------| 
F||--5-5-5-5-5-5-5-5-5-5-5-5-5-5-5-5-7-7-7-7-7-7-7-7-7-7-7-7-7-7-7-7--| 
C||--5-5-5-5-5-5-5-5-5-5-5-5-5-5-5-5-7-7-7-7-7-7-7-7-7-7-7-7-7-7-7-7--| 
G||--3-3-3-3-3-3-3-3-3-3-3-3-3-3-3-3-5-5-5-5-5-5-5-5-5-5-5-5-5-5-5-5--| 
C||-------------------------------------------------------------------| 


D||-------------------------------------------------------------------| 
A||-------------------------------------------------------------------| 
F||-------------------------------------------------------------------| 
C||--2-2-2-2-2-2-2-2-2-2-2-2-2-2-2-2-2-2-2-2-2-2-2-2-2-2-2-2-2-2-2-2--| 
G||--2-2-2-2-2-2-2-2-2-2-2-2-2-2-2-2-2-2-2-2-2-2-2-2-2-2-2-2-2-2-2-2--| 
C||--2-2-2-2-2-2-2-2-2-2-2-2-2-2-2-2-2-2-2-2-2-2-2-2-2-2-2-2-2-2-2-2--| 



Guitar 1: 
D||-----------------------------------------------------------------------------------| 
A||-----------------------------------------------------------------------------------| 
F||--9-9-9-9-9-9-9-9-9-9-9-9-9-9-9-9-11-11-11-11-11-11-11-11-11-11-11-11-11-11-11-11--| 
C||--x-x-x-x-x-x-x-x-x-x-x-x-x-x-x-x-x--x--x--x--x--x--x--x--x--x--x--x--x--x--x--x---| 
G||--7-7-7-7-7-7-7-7-7-7-7-7-7-7-7-7-9--9--9--9--9--9--9--9--9--9--9--9--9--9--9--9---| 
C||-----------------------------------------------------------------------------------| 


D||---------------------------------------------------| 
A||---------------------------------------------------| 
F||--12-12-12-12-12-12-12-12-12-12-12-12-12-12-12-12--| 
C||--x--x--x--x--x--x--x--x--x--x--x--x--x--x--x--x---| 
G||--10-10-10-10-10-10-10-10-10-10-10-10-10-10-10-10--| 
C||---------------------------------------------------| 


D||---------------------------------------------------| 
A||---------------------------------------------------| 
F||--12-12-12-12-12-12-12-12-12-12-12-12-12-12-12-12--| 
C||--x--x--x--x--x--x--x--x--x--x--x--x--x--x--x--x---| 
G||--10-10-10-10-10-10-10-10-10-10-10-10-10-10-10-10--| 
C||---------------------------------------------------| 


Guitar 2: 
D||-------------------------------------------------------------------| 
A||-------------------------------------------------------------------| 
F||--5-5-5-5-5-5-5-5-5-5-5-5-5-5-5-5-7-7-7-7-7-7-7-7-7-7-7-7-7-7-7-7--| 
C||--5-5-5-5-5-5-5-5-5-5-5-5-5-5-5-5-7-7-7-7-7-7-7-7-7-7-7-7-7-7-7-7--| 
G||--3-3-3-3-3-3-3-3-3-3-3-3-3-3-3-3-5-5-5-5-5-5-5-5-5-5-5-5-5-5-5-5--| 
C||-------------------------------------------------------------------| 


D||-------------------------------------------------------------------| 
A||-------------------------------------------------------------------| 
F||--9-9-9-9-9-9-9-9-9-9-9-9-9-9-9-9-9-9-9-9-9-9-9-9-9-9-9-9-9-9-9-9--| 
C||--9-9-9-9-9-9-9-9-9-9-9-9-9-9-9-9-9-9-9-9-9-9-9-9-9-9-9-9-9-9-9-9--| 
G||--7-7-7-7-7-7-7-7-7-7-7-7-7-7-7-7-7-7-7-7-7-7-7-7-7-7-7-7-7-7-7-7--| 
C||-------------------------------------------------------------------| 



OUtro 
Guitar 1: 
D||---------------0~-------------------0~--| 
A||---------------3~-------------------5~--| 
F||----------------------------------------| 
C||----------2~-------------------4~-------| 
G||--/3~---3--------------/5~---5----------| 
C||----------------------------------------| 


Guitar 2: 
D||----------------------------------------| 
A||----------------------------------------| 
F||----------------------14~---------------| 
C||----------------------x-----------------| 
G||----------------------12~---------------| 
C||----------------------------------------| 


Guitar 1/2: 
D||------| 
A||------| 
F||------| 
C||--2~--| 
G||--2~--| 
C||--2~--| 




Tablature Legend 
---------------- 
 h   hammer-on 
 p   pull-off 
 b   bend 
 pb  pre-bend 
 r   release bend 
 ~   hold / vibrato 
 .   palm mute 
 /   slide up 
 \   slide down 
 *   pinch harmonic 
 '   natural harmonic 
 x   mute note 
 T   tap 
		  

Full key step upFull key step up
Half key step upHalf key step up
Half key step downHalf key step down
Full key step downFull key step down
auto scroll beats size up size down change color hide chords drawings
tab show chords e-chords YouTube Clip e-chords hide all tabs e-chords go to top tab

share