Before Their Eyes

Backstabber

Before Their Eyes

tabs

by  AMAN_CLAUDINO

save to print version add songbook text version e-mail correct tuner
chordsukulelecavacokeyboardtabbassdrumsharmonicaflute Guitar Pro
close

there isn't a video lesson for this song

chords

Backstabber

	  		


Intro 
Guitar 1: 
D||----------------------------------|-------------------5--------------| 
A||-----6---8---------6--------------|-----6---8-----------6---5---5h6--| 
F||--/7---7---7-5-7-----7---5---5h7--|--/7---7---7-5-7------------------| x2 
C||-----------------------0---0------|-----------------------0---0------| 
G||----------------------------------|----------------------------------| 
C||----------------------------------|----------------------------------| 
                .                                  . 

Guitar 2: 
D||--------------------------------------|--------------------------------------| 
A||--------------------------------------|--------------------------------------| 
F||--------------------------------------|--------------------------------------| 
C||--0000000000000000-888888888888-5555--|--0000000000000000-55555555-88888888--| 
G||--0000000000000000-888888888888-5555--|--0000000000000000-55555555-88888888--| 
C||--0000000000000000-888888888888-5555--|--0000000000000000-55555555-88888888--| 


Verse 
Guitar 1/2: 
D||-----------------------------|---------------------------------| 
A||-------6---------------------|---------6----------------6~-----| 
F||-------9b10------------------|---------9b10-------------9b10~--| 
C||--0---------0~---------------|--0-0---------0~-----------------| 
G||--0---------0~--------7------|--0-0---------0~--------7--------| 
C||--0-00------0~-----/8---8-7--|--0-0-00------0~------8----------| 
       ..                              .. 


Guitar 1: 
D||--------------------------| 
A||--------------------------| 
F||--77777777-10101010-9999--| 
C||--xxxxxxxx-x-x-x-x--xxxx--| 
G||--55555555-8-8-8-8--7777--| 
C||--------------------------| 


Guitar 2: 
D||---------------------| 
A||---------------------| 
F||---------------------| 
C||--88888888-55555555--| 
G||--88888888-55555555--| 
C||--88888888-55555555--| 



Guitar 1/2: 
D||-----------------------------|---------------------------------| 
A||-------6---------------------|---------6----------------6~-----| 
F||-------9b10------------------|---------9b10-------------9b10~--| 
C||--0---------0~---------------|--0-0---------0~-----------------| 
G||--0---------0~--------7------|--0-0---------0~--------7--------| 
C||--0-00------0~-----/8---8-7--|--0-0-00------0~------8----------| 
       ..                              .. 


Guitar 1: 
D||--------------------------|----------------------------| 
A||--------------------------|----------------------------| 
F||--77777777-10101010-9999--|--77777777-10101010-121212--| 
C||--xxxxxxxx-x-x-x-x--xxxx--|--xxxxxxxx-x-x-x-x--x-x-x---| 
G||--55555555-8-8-8-8--7777--|--55555555-8-8-8-8--101010--| 
C||--------------------------|----------------------------| 


Guitar 2: 
D||---------------------|--------------------| 
A||---------------------|--------------------| 
F||---------------------|--------------------| 
C||--88888888-55555555--|--88888888-5555555--| 
G||--88888888-55555555--|--88888888-5555555--| 
C||--88888888-55555555--|--88888888-5555555--| 
                            ....... ...... 


Chorus 
Guitar 1: 
D||-------------------------------------------------------------| 
A||-------------------------------------------------------------| 
F||--1010101010101010-9999-12121212-1010101010101010-9999-7777--| 
C||--x-x-x-x-x-x-x-x--xxxx-x-x-x-x--x-x-x-x-x-x-x-x--xxxx-xxxx--| 
G||--8-8-8-8-8-8-8-8--7777-10101010-8-8-8-8-8-8-8-8--7777-5555--| 
C||-------------------------------------------------------------| 


D||---------------------------------------------------------------------| 
A||---------------------------------------------------------------------| 
F||--1010101010101010-9999-12121212-1414141414141414-15151515-14141414--| 
C||--x-x-x-x-x-x-x-x--xxxx-x-x-x-x--x-x-x-x-x-x-x-x--x-x-x-x--x-x-x-x---| 
G||--8-8-8-8-8-8-8-8--7777-10101010-1212121212121212-13131313-12121212--| 
C||---------------------------------------------------------------------| 


Guitar 2: 
D||--------------------------------------|--------------------------------------| 
A||--------------------------------------|--------------------------------------| 
F||--------------------------------------|--------------------------------------| 
C||--0000000000000000-888888888888-5555--|--0000000000000000-55555555-88888888--| 
G||--0000000000000000-888888888888-5555--|--0000000000000000-55555555-88888888--| 
C||--0000000000000000-888888888888-5555--|--0000000000000000-55555555-88888888--| 



Verse 
Guitar 1/2: 
D||----------------------------------------|------------------------------------| 
A||----------------------------------------|------------------------------------| 
F||----------------------------------------|------------------------------------| 
C||----------------------------------------|------------------------------------| 
G||----------------------------------------|------------------------------------| 
C||--0--00--0-----3/12-0--0-6-6-5-5-3-3-0--|--0--00--0-----3/12-0--0-6-6-5-5-3--| 
        .                   . . . . . .          .                   . . . . . 


Guitar 1: 
D||--------| 
A||--------| 
F||--------| 
C||--------| 
G||--------| 
C||--*5~~--| 


Guitar 2: 
D||--------| 
A||--------| 
F||--------| 
C||--*3~~--| 
G||--------| 
C||--------| 


Guitar 1/2: 
D||-------------------------------------------------------------------| 
A||-------------------------------------------------------------------| 
F||-------------------------------------------------------------------| 
C||-------------------------------------------------------------------| 
G||--------------------------1-0-----------------------------1-0------| 
C||--5-5-5-5-5-5-5-5-1-1-1-1-----1-5~--5-5-5-5-5-5-5-1-1-1-1-----3-0--| 


Guitar 1/2: 
D||----------------------------------------|------------------------------------| 
A||----------------------------------------|------------------------------------| 
F||----------------------------------------|------------------------------------| 
C||----------------------------------------|------------------------------------| 
G||----------------------------------------|------------------------------------| 
C||--0--00--0-----3/12-0--0-6-6-5-5-3-3-0--|--0--00--0-----3/12-0--0-6-6-5-5-3--| 
        .                   . . . . . .          .                   . . . . . 


Guitar 1: 
D||--------| 
A||--------| 
F||--------| 
C||--------| 
G||--------| 
C||--*5~~--| 


Guitar 2: 
D||--------| 
A||--------| 
F||--------| 
C||--*3~~--| 
G||--------| 
C||--------| 


Guitar 1/2: 
D||-----------------------------------------------------------| 
A||-----------------------------------------------------------| 
F||-----------------------------------------------------------| 
C||-----------------------------------------------------------| 
G||--------------------------1-0------------------------------| 
C||--5-5-5-5-5-5-5-5-1-1-1-1-----1-5~--5-5-5-5-5-5-5-1-1-1-1--| 



Chorus 
Guitar 1: 
D||-------------------------------------------------------------| 
A||-------------------------------------------------------------| 
F||--1010101010101010-9999-12121212-1010101010101010-9999-7777--| 
C||--x-x-x-x-x-x-x-x--xxxx-x-x-x-x--x-x-x-x-x-x-x-x--xxxx-xxxx--| 
G||--8-8-8-8-8-8-8-8--7777-10101010-8-8-8-8-8-8-8-8--7777-5555--| 
C||-------------------------------------------------------------| 


D||---------------------------------------------------------------------| 
A||---------------------------------------------------------------------| 
F||--1010101010101010-9999-12121212-1414141414141414-15151515-14141414--| 
C||--x-x-x-x-x-x-x-x--xxxx-x-x-x-x--x-x-x-x-x-x-x-x--x-x-x-x--x-x-x-x---| 
G||--8-8-8-8-8-8-8-8--7777-10101010-1212121212121212-13131313-12121212--| 
C||---------------------------------------------------------------------| 


Guitar 2: 
D||--------------------------------------|--------------------------------------| 
A||--------------------------------------|--------------------------------------| 
F||--------------------------------------|--------------------------------------| 
C||--0000000000000000-888888888888-5555--|--0000000000000000-55555555-88888888--| 
G||--0000000000000000-888888888888-5555--|--0000000000000000-55555555-88888888--| 
C||--0000000000000000-888888888888-5555--|--0000000000000000-55555555-88888888--| 



Bridge 
Guitar 1/2: 
D||----------------------------------------| 
A||----------------------------------------| 
F||----------------------------------------| 
C||----------------------------------------| 
G||----------------------------------------| 
C||--'5'5'5'5'5'\'\'\'\'\'\'\'\'\'\'\'\'\--| 
(Natural harmonic slide slowly sliding up from 5th fret) 



Breakdown 
Guitar 1/2: 
D||----------------------------------------|--------------------------------------| 
A||----------------------------------------|--------------------------------------| 
F||----------------------------------------|--------------------------------------| 
C||----------------------------------------|--------------------------------------| x2 
G||--00---00---00---00-----0000---0~-0000--|--00---00---00---00-----0000---00000--| 
C||--00---00---00---000~---0000---0~-0000--|--00---00---00---000~---0000---00000--| 
     ..   ..   ..   ..     ....   .  ....     ..   ..   ..   ..     ....   ..... 



Guitar 1/2: 
D||-----------------------| 
A||-----------------------| 
F||-----------------------| 
C||-----------------------| 
G||--00---00---00---0000--| 
C||--00---00---00---0000--| 
     ..   ..   ..   .... 


Guitar 1: 
D||-------------------| 
A||-------------------| 
F||-------------------| 
C||-------------------| 
G||--1----------------| 
C||-----3--0-1-0-0-0--| 



Guitar 1/2: 
D||-----------------------| 
A||-----------------------| 
F||-----------------------| 
C||-----------------------| 
G||--00---00---00---0000--| 
C||--00---00---00---0000--| 
     ..   ..   ..   .... 


Guitar 2: 
D||-------------------| 
A||-------------------| 
F||-------------------| 
C||----------2-2-2-2--| 
G||--1-------4-4-4-4--| 
C||-----3--0----------| 


Guitar 1/2: 
D||----------------------------------------|--------------------------------------| 
A||----------------------------------------|--------------------------------------| 
F||----------------------------------------|--------------------------------------| 
C||----------------------------------------|--------------------------------------| 
G||--00---00---00---00-----0000---0~-0000--|--00---00---00---00-----0000---00000--| 
C||--00---00---00---000~---0000---0~-0000--|--00---00---00---000~---0000---00000--| 
     ..   ..   ..   ..     ....   .  ....     ..   ..   ..   ..     ....   ..... 



Pre-Chorus 
Guitar 2: 
D||-------------------------------------------------| 
A||-------------------------------------------------| 
F||-------------------------------------------------| 
C||--(face-in)--0000000000000000-55555555-88888888--| 
G||-------------0000000000000000-55555555-88888888--| 
C||-------------0000000000000000-55555555-88888888--| 



Chorus 
Guitar 1: 
D||-------------------------------------------------------------| 
A||-------------------------------------------------------------| 
F||--1010101010101010-9999-12121212-1010101010101010-9999-7777--| 
C||--x-x-x-x-x-x-x-x--xxxx-x-x-x-x--x-x-x-x-x-x-x-x--xxxx-xxxx--| 
G||--8-8-8-8-8-8-8-8--7777-10101010-8-8-8-8-8-8-8-8--7777-5555--| 
C||-------------------------------------------------------------| 


D||---------------------------------------------------------------------| 
A||---------------------------------------------------------------------| 
F||--1010101010101010-9999-12121212-1414141414141414-15151515-14141414--| 
C||--x-x-x-x-x-x-x-x--xxxx-x-x-x-x--x-x-x-x-x-x-x-x--x-x-x-x--x-x-x-x---| 
G||--8-8-8-8-8-8-8-8--7777-10101010-1212121212121212-13131313-12121212--| 
C||---------------------------------------------------------------------| 


Guitar 2: 
D||--------------------------------------|--------------------------------------| 
A||--------------------------------------|--------------------------------------| 
F||--------------------------------------|--------------------------------------| 
C||--0000000000000000-888888888888-5555--|--0000000000000000-55555555-88888888--| 
G||--0000000000000000-888888888888-5555--|--0000000000000000-55555555-88888888--| 
C||--0000000000000000-888888888888-5555--|--0000000000000000-55555555-88888888--| 



Collision 
Guitar 1: 
D||----------------------------------|-------------------5--------------| 
A||-----6---8---------6--------------|-----6---8-----------6---5---5h6--| 
F||--/7---7---7-5-7-----7---5---5h7--|--/7---7---7-5-7------------------| x2 
C||-----------------------0---0------|-----------------------0---0------| 
G||----------------------------------|----------------------------------| 
C||----------------------------------|----------------------------------| 
                .                                  . 

Guitar 2: 
D||-------------------------------------------------------------| 
A||-------------------------------------------------------------| 
F||--1010101010101010-9999-12121212-1010101010101010-9999-7777--| 
C||--x-x-x-x-x-x-x-x--xxxx-x-x-x-x--x-x-x-x-x-x-x-x--xxxx-xxxx--| 
G||--8-8-8-8-8-8-8-8--7777-10101010-8-8-8-8-8-8-8-8--7777-5555--| 
C||-------------------------------------------------------------| 


D||---------------------------------------------------------------------| 
A||---------------------------------------------------------------------| 
F||--1010101010101010-9999-12121212-1414141414141414-15151515-14141414--| 
C||--x-x-x-x-x-x-x-x--xxxx-x-x-x-x--x-x-x-x-x-x-x-x--x-x-x-x--x-x-x-x---| 
G||--8-8-8-8-8-8-8-8--7777-10101010-1212121212121212-13131313-12121212--| 
C||---------------------------------------------------------------------| 


Guitar 3: 
D||--------------------------------------|--------------------------------------| 
A||--------------------------------------|--------------------------------------| 
F||--------------------------------------|--------------------------------------| 
C||--0000000000000000-888888888888-5555--|--0000000000000000-55555555-88888888--| 
G||--0000000000000000-888888888888-5555--|--0000000000000000-55555555-88888888--| 
C||--0000000000000000-888888888888-5555--|--0000000000000000-55555555-88888888--| 



Outro 
Guitar 1/2: 
D||----------------------------------------|----------------------------------------| 
A||----------------------------------------|----------------------------------------| 
F||----------------------------------------|----------------------------------------| 
C||----------------------------------------|----------------------------------------| 
G||----------------------------------------|----------------------------------------| 
C||--0--00--0-----3/12-0--0-6-6-5-5-3-3-0--|--0--00--0-----3/12-0--0-6-6-5-5-3-3-0--| 
        .                   . . . . . .          .                   . . . . . . 




Tablature Legend 
---------------- 
 h   - hammer-on 
 p   - pull-off 
 b   - bend 
 r   - release bend 
 *   - pinch harmonic 
 '   - natural harmonic 
 x   - mute note 
 .   - palm mute 
 /   - slide down 
 \   - slide up 
		  

auto scroll beats size up size down change color hide chords drawings
tab show chords e-chords YouTube Clip e-chords hide all tabs e-chords go to top tab

share