Before Their Eyes

Alive

Before Their Eyes

tabs

by  TARIKIKE

save to print version add songbook text version e-mail correct tuner
chordsukulelecavacokeyboardtabbassdrumsharmonicaflute Guitar Pro
close

there isn't a video lesson for this song

chords

Alive

Key:  C More
Alive Key GG
Alive Key G#G#
Alive Key AA
Alive Key A#A#(one step down)
Alive Key BB(half step down)
Alive Key CC(original key)
Alive Key C#C#(half step up)
Alive Key DD(one step up)
Alive Key D#D#
Alive Key EE
Alive Key FF
Alive Key F#F#
	  		




Intro 
Guitar 1/2: 
D||-----------| 
A||-----------| 
F||-----------| 
C||--x-x-x-x--| 
G||--x-x-x-x--| 
C||--x-x-x-x--| 


Guitar 1: 
D||---------------------------------------------------| 
A||--------14-----------------------------------------| 
F||--------------14----------------------------14-----| 
C||--12-12----12----12-12-16-12-14-12-12-12-14----12--| 
G||---------------------------------------------------| 
C||---------------------------------------------------| 
     .  .     .     .  .     .     .  .           . 


D||-------------------------------------------------| 
A||--------14---------------------------------------| 
F||--------------14----------------------------14~--| 
C||--12-12----12----12-12-16-12-14-12-12-12-14------| x4 
G||-------------------------------------------------| 
C||-------------------------------------------------| 
     .  .     .     .  .     .     .  . 


Guitar 2: 
D||---------------------------------------------------------------------------| 
A||---------------------------------------------------------------------------| 
F||-----------------------------------------------------------------------0~--| 
C||--0000000000000000-7777777777777777-5555555555555555-44444444-2222-0-0-5~--| 
G||--0000000000000000-7777777777777777-5555555555555555-55555555-2222-0-0-----| 
C||--0000000000000000-7777777777777777-5555555555555555-44444444-2222-0-0-----| 
                                                                      . . 

D||------------------------------------------------------------------------------| 
A||------------------------------------------------------------------------------| 
F||------------------------------------------------------------------0~------0~--| 
C||--0000000000000000-7777777777777777-5555555555555555-44444444-0-0-5~--0-0-5~--| 
G||--0000000000000000-7777777777777777-5555555555555555-55555555-0-0-----0-0-----| 
C||--0000000000000000-7777777777777777-5555555555555555-44444444-0-0-----0-0-----| 
                                                                 . .     . . 


Guitar 1/2: 
D||------| 
A||------| 
F||------| 
C||--0~--| 
G||--0~--| 
C||--0~--| 



Verse 
Guitar 1: 
D||------------------------------------------------------------------| 
A||------3-----3-----3-----3-----3~------3-----3-----3-----3-----3~--| 
F||----2-----2-----2-----2-----2-------2-----2-----2-----2-----2-----| 
C||--0-----0-----0-----0-----0-------5-----5-----5-----5-----5-------| 
G||------------------------------------------------------------------| 
C||------------------------------------------------------------------| 


D||------------------------------------------------------------------| 
A||------3-----3-----3-----3-----3~------3-----3-----3-----3-----3~--| 
F||----2-----2-----2-----2-----2-------2-----2-----2-----2-----2-----| 
C||--4-----4-----4-----4-----4-------2-----2-----2-----2-----2-------| x3 
G||------------------------------------------------------------------| 
C||------------------------------------------------------------------| 


Guitar 2: 
D||----------0~------------0~------------0~------------0~---0~--------| 
A||------3~------------3~------------3~------------3~----------3~-----| 
F||--2~------------0~---------------------------------------------2~--| 
C||------------------------------4~------------2~---------------------| x2 
G||-------------------------------------------------------------------| 
C||-------------------------------------------------------------------| 



Pre-Chorus 
Guitar 1: 
D||----------------| 
A||----------------| 
F||----------------| 
C||--12~-----h13~--| 
G||----------------| 
C||----------------| 



Chorus 
Guitar 1: 
D||---------------------------------------------------| 
A||--------14-----------------------------------------| 
F||--------------14----------------------------14-----| 
C||--12-12----12----12-12-16-12-14-12-12-12-14----12--| 
G||---------------------------------------------------| 
C||---------------------------------------------------| 
     .  .     .     .  .     .     .  .           . 


D||-------------------------------------------------| 
A||--------14---------------------------------------| 
F||--------------14----------------------------14~--| 
C||--12-12----12----12-12-16-12-14-12-12-12-14------| x4 
G||-------------------------------------------------| 
C||-------------------------------------------------| 
     .  .     .     .  .     .     .  . 


Guitar 2: 
D||---------------------------------------------------------------------------| 
A||---------------------------------------------------------------------------| 
F||-----------------------------------------------------------------------0~--| 
C||--0000000000000000-7777777777777777-5555555555555555-44444444-2222-0-0-5~--| 
G||--0000000000000000-7777777777777777-5555555555555555-55555555-2222-0-0-----| 
C||--0000000000000000-7777777777777777-5555555555555555-44444444-2222-0-0-----| 
                                                                      . . 

D||------------------------------------------------------------------------------| 
A||------------------------------------------------------------------------------| 
F||------------------------------------------------------------------0~------0~--| 
C||--0000000000000000-7777777777777777-5555555555555555-44444444-0-0-5~--0-0-5~--| 
G||--0000000000000000-7777777777777777-5555555555555555-55555555-0-0-----0-0-----| 
C||--0000000000000000-7777777777777777-5555555555555555-44444444-0-0-----0-0-----| 
                                                                 . .     . . 



Verse 
Guitar 1: 
D||------------------------------------------------------------------| 
A||------3-----3-----3-----3-----3~------3-----3-----3-----3-----3~--| 
F||----2-----2-----2-----2-----2-------2-----2-----2-----2-----2-----| 
C||--0-----0-----0-----0-----0-------5-----5-----5-----5-----5-------| 
G||------------------------------------------------------------------| 
C||------------------------------------------------------------------| 


D||------------------------------------------------------------------| 
A||------3-----3-----3-----3-----3~------3-----3-----3-----3-----3~--| 
F||----2-----2-----2-----2-----2-------2-----2-----2-----2-----2-----| 
C||--4-----4-----4-----4-----4-------2-----2-----2-----2-----2-------| x2 
G||------------------------------------------------------------------| 
C||------------------------------------------------------------------| 


Guitar 2: 
D||----------0~------------0~------------0~------------0~---0~--------| 
A||------3~------------3~------------3~------------3~----------3~-----| 
F||--2~------------0~---------------------------------------------2~--| 
C||------------------------------4~------------2~---------------------| 
G||-------------------------------------------------------------------| 
C||-------------------------------------------------------------------| 



Pre-Chorus 
Guitar 1: 
D||----------------| 
A||----------------| 
F||----------------| 
C||--12~-----h13~--| 
G||----------------| 
C||----------------| 



Chorus 
Guitar 1: 
D||---------------------------------------------------| 
A||--------14-----------------------------------------| 
F||--------------14----------------------------14-----| 
C||--12-12----12----12-12-16-12-14-12-12-12-14----12--| 
G||---------------------------------------------------| 
C||---------------------------------------------------| 
     .  .     .     .  .     .     .  .           . 


D||-------------------------------------------------| 
A||--------14---------------------------------------| 
F||--------------14----------------------------14~--| 
C||--12-12----12----12-12-16-12-14-12-12-12-14------| x4 
G||-------------------------------------------------| 
C||-------------------------------------------------| 
     .  .     .     .  .     .     .  . 


Guitar 2: 
D||---------------------------------------------------------------------------| 
A||---------------------------------------------------------------------------| 
F||-----------------------------------------------------------------------0~--| 
C||--0000000000000000-7777777777777777-5555555555555555-44444444-2222-0-0-5~--| 
G||--0000000000000000-7777777777777777-5555555555555555-55555555-2222-0-0-----| 
C||--0000000000000000-7777777777777777-5555555555555555-44444444-2222-0-0-----| 
                                                                      . . 

D||------------------------------------------------------------------------------| 
A||------------------------------------------------------------------------------| 
F||------------------------------------------------------------------0~------0~--| 
C||--0000000000000000-7777777777777777-5555555555555555-44444444-0-0-5~--0-0-5~--| 
G||--0000000000000000-7777777777777777-5555555555555555-55555555-0-0-----0-0-----| 
C||--0000000000000000-7777777777777777-5555555555555555-44444444-0-0-----0-0-----| 
                                                                 . .     . . 


Bridge 
Guitar 1: 
D||----------0~------------0~------------0~------------0~---0~--------| 
A||------3~------------3~------------3~------------3~----------3~-----| 
F||--2~------------0~---------------------------------------------2~--| 
C||------------------------------4~------------2~---------------------| 
G||-------------------------------------------------------------------| 
C||-------------------------------------------------------------------| 


Guitar 2: 
D||-------------|-------------|-------------|------| 
A||-------------|-------------|-------------|------| 
F||-------------|-------------|-------------|------| 
C||--0~---------|-------------|--0~---------|--55--| 
G||--0~---------|-------------|--0~---------|--55--| 
C||--0~---------|-------------|--0~---------|--55--| 



Guitar 1: 
D||----------0~------------0~------------0~------------0~---0~--------| 
A||------3~------------3~------------3~------------3~----------3~-----| 
F||--2~------------0~---------------------------------------------2~--| 
C||------------------------------4~------------2~---------------------| 
G||-------------------------------------------------------------------| 
C||-------------------------------------------------------------------| 


Guitar 2: 
D||-------------------------------------------------------------------------------------| 
A||-------------------------------------------------------------------------------------| 
F||--77--777--777--777--7-1212--121212--121212--121212--12-11--\--7--/--11--\--7---6-7--| 
C||--xx--xxx--xxx--xxx--x-x-x---x-x-x---x-x-x---x-x-x---x--x---\--x--/--x---\--x---x-x--| 
G||--55--555--555--555--5-1010--101010--101010--101010--10-9---\--5--/--9---\--5---4-5--| 
C||-------------------------------------------------------------------------------------| 


D||------------------------------------| 
A||------------------------------------| 
F||--11--\--7--/--11--\--7---9-11-9-7--| 
C||--x---\--x--/--x---\--x---x-x--x-x--| x2 
G||--9---\--5--/--9---\--5---7-9--7-5--| 
C||------------------------------------| 


Guitar 3: 
D||-----------------------------------------------------------------------------------| 
A||-----------------------------------------------------------------------------------| 
F||-----------------------------------------------------------------------------------| 
C||--00--000--000--00000-55--555--555--55555-44--444--444--44444-22--222--222--22222--| x2 
G||--00--000--000--00000-55--555--555--55555-55--555--555--55555-22--222--222--22222--| 
C||--00--000--000--00000-55--555--555--55555-44--444--444--44444-22--222--222--22222--| 



Chorus 
Guitar 1: 
D||---------------------------------------------------| 
A||--------14-----------------------------------------| 
F||--------------14----------------------------14-----| 
C||--12-12----12----12-12-16-12-14-12-12-12-14----12--| 
G||---------------------------------------------------| 
C||---------------------------------------------------| 
     .  .     .     .  .     .     .  .           . 


D||-------------------------------------------------| 
A||--------14---------------------------------------| 
F||--------------14----------------------------14~--| 
C||--12-12----12----12-12-16-12-14-12-12-12-14------| x3 
G||-------------------------------------------------| 
C||-------------------------------------------------| 
     .  .     .     .  .     .     .  . 


Guitar 2: 
D||----------------------------------------------| 
A||----------------------------------------------| 
F||-------------------------------0-0-0-0-0-0-0--| 
C||--4444444444444444-55555555--0-4-4-4-4h5-5-5--| 
G||--5555555555555555-55555555--0----------------| 
C||--4444444444444444-55555555--0----------------| 
                                . 

D||----------------------------------------------------------------------------------------| 
A||----------------------------------------------------------------------------------------| 
F||--------------------------------------------------------0-0-0-0-0-0---0-0-0-0-0-0-0-0~--| 
C||--0000000000000000-5555555555555555-4444444444444444--0-4-4-4-4h5-5-0-4-4-4h5-5-4-4-2~--| 
G||--0000000000000000-5555555555555555-5555555555555555--0-------------0-------------------| 
C||--0000000000000000-5555555555555555-4444444444444444--0-------------0-------------------| 
                                                         .             . 


Outro 
Guitar 1: 
D||----------0~------------0~------------0~------------0~---0~------------| 
A||------3~------------3~------------3~------------3~----------3~-----3~--| 
F||--2~------------0~---------------------------------------------2~--2~--| 
C||------------------------------4~------------2~-------------------------| 
G||-----------------------------------------------------------------------| 
C||-----------------------------------------------------------------------| 




Tablature Legend 
---------------- 
 h   - hammer-on 
 p   - pull-off 
 b   - bend 
 r   - release bend 
 *   - pinch harmonic 
 '   - natural harmonic 
 x   - mute note 
 .   - palm mute 
 /   - slide down 
 \   - slide up 
		  

auto scroll beats size up size down change color hide chords drawings
tab show chords e-chords YouTube Clip e-chords hide all tabs e-chords go to top tab

share