Beethoven

home > Beethoven

Fur Elisa 2 Tab

Beethoven

Difficulty: BeginnerBeginner

by Hibby

tuner correct add songbook print version text version save to e-mail
chordsukulelecavacokeyboardtabbassdrumsharmonicsflute Guitar Pro
chords

Fur Elisa 2

  		Primera Parte 

Si les gusta, coloco la parte que sigue 
si no les usta algo este es mi mail 
[email protected] 

6 |------------------------------------------------------------------------------------------------ 
5 |------------------------------------------------------------------------------------------------ 
4 |------------------------------------------------------------------------------------------------ 
3 |-----------------------------------------------------2------------------------------------------ 
2 |------5---4---5---4---5----0----3-----1------------------------------------------------ 
1 |------------------------------------------------------------------------------------------------ 


6 |------------------------------------------------------------------------------------------------ 
5 |------3------------------------------------------------------------------------------------------ 
4 |-------------2---------------------------------------2-------------------------------------------- 
3 |--------------------2-----------------------------------------1----------------------------------- 
2 |---------------------------0-----------------------------------------0------1-------------------- 
1 |------------------------------------------------------------------------------------------------ 


6 |------------------------------------------------------------------------------------------------ 
5 |------------------------------------------------------------------------------------------------ 
4 |------------------------------------------------------------------------------------------------ 
3 |-----------------------------------------------------2------------------------------------------ 
2 |------5---4---5---4---5----0----3-----1------------------------------------------------ 
1 |------------------------------------------------------------------------------------------------ 

6 |------------------------------------------------------------------------------------------------ 
5 |------3------------------------------------------------------------------------------------------ 
4 |-------------2---------------------------------------0-------------------------------------------- 
3 |--------------------2------------------------------------------------------2---------------------- 
2 |---------------------------0---------------------------------1----0------------------------------ 
1 |------------------------------------------------------------------------------------------------ 
	  

Search Paypal
auto scroll beats size up size down change color hide chords drawings
tab show chords e-chords YouTube Clip e-chords hide all tabs e-chords go to top tab