Bee Gees

home > Bee Gees

Night Fever Tab

Bee Gees

Difficulty: AdvancedAdvanced

by %2D+kepler+%2D

tuner correct add songbook print version text version save to e-mail
chordsukulelecavacokeyboardtabbassdrumsharmonicsflute Guitar Pro
chords

Night Fever

Year: 1979 - Album: Their Greatest Hits

(Barry/ Robin/ and Maurice Gibb)

  		Intro 
|---------------------------------------------------------------------| 
|-4-------4--------7-------7--------6-------6-------------------------| bass 
|-2-------2--------5-------5--------4-------4-------------------------| 
|---------------------------------------------------------------------| 
| 
|---------------------------------------------------------------------| 
|---------------------------------------------------------------------| 
|---------------------------------------------------------------------| 
|---------------------------------------------------------------------| gtr 
|---------------------------------------------------------------------| 
|---00-00---00-000---00-00---00-000---00-00---00-000---00-00---00-000-| 
    .. ..   .. ...   .. ..   .. ...   .. ..   .. ...   .. ..   .. ... 
Intro (1 time) 
 
 
Riff 1                                                Fill 1 
|-------------------------------------------------|  |---------| 
|-------------------------------------------------|  |---------| 
|-------------------------------------------------|  |---------| 
|-4-4-44-44-4-7-7-77-77-7-6-6-66-66-6-------------|  |-7-8-7---| 
|-2-2-22-22-2-5-5-55-55-5-4-4-44-44-4-5-5-55-55-5-|  |-------9-| 
|-------------------------------------3-3-33-33-3-|  |---------| 
 
Riff 1 with Fill 1 (2 times) 
 
 
Riff 2 
|----------------------------------------------| 
|----------------------------------------------| 
|----------------------------------------------| 
|----------------------------------------------| 
|----------------------------------------------| 
|-0-0-0-0-000000-0-0-0-0-000000-0-0-0-0-000000-| 
  . . . . ...... . . . . ...... . . . . ...... 
 
|------------------------------------------------------| 
|---------------------10-9---------------10-9----------| 
|----------------9-10------10-9-----9-10------10-9-----| 
|-------------------------------9-7----------------9-7-| 
|------------------------------------------------------| 
|-0-0-0-0-000000---------------------------------------| 
  . . . . ...... 
Riff 2 (3 times) 
 
 
Riff 3 
|-----------------------------------------------------------------------| 
|-----------------------------------------------------------------------| 
|-----------------------------------------------------------------------| 
|-4-44-5-55-6-66-7-77-8-88-9-99-101010-111111-121212-131313-141414-1515-| 
|-2-22-3-33-4-44-5-55-6-66-7-77----888----999-101010-111111-121212-1313-| 
|-----------------------------------------------------------------------| 
 
Riff 3 with Fill 1 (1 time) 
Repeat Riff 1 (2 times) 
Repeat Riff 2 (2 times) 
Repeat Riff 3 with Fill 1 (1 time) 
Repeat Riff 1 (2 times) 
 
 
Riff 4                        Riff 5 
|-------------------------|  |----------| 
|-------------------------|  |----------| 
|-------------------------|  |----------| 
|-------------------------|  |----------| 
|---4-3---3-------8-7-8-7-|  |-6-5-3----| 
|-5-----2---2-5-4---------|  |-4-3-1-00-| 
                                     .. 
Riff 4 (6 times) 
Riff 5 (8 times) 
 
 
Riff 6 
|------------------------------------------------------| 
|------------------------------------------------------| 
|------------------------------------------------------| 
|------------------------------------------------------| 
|-6-5----8-7----10-9----8-7----6-5----8-7----10-9----8-| 
|-4-3-00-6-5-00--8-7-00-6-5-00-4-3-00-6-5-00--8-7-00-6-| 
      ..     ..      ..     ..     ..     ..      .. 
Riff 6 (1 time) 
Repeat Riff 2 (2 times) 
Repeat Riff 3 with Fill 1 (1 time) 
Repeat Riff 1 (1 times) 
Repeat Riff 1 (1 times) with Fill 1 
 
 
Riff 7 
|-----------------------------------------------------| 
|------10-9---------------------------10-9------------| 
|-9-10------10-9-----------------9-10------10-9-------| 
|----------------9-7----------------------------9-7---| 
|---------------------------------------------------2-| 
|--------------------0-0-0-0-0-0--------------------0-| 
                     . . . . . . 
Riff 7 (1 time) 

	  

Search Paypal
auto scroll beats size up size down change color hide chords drawings
tab show chords e-chords YouTube Clip e-chords hide all tabs e-chords go to top tab