Beck

home > Beck

Loser Tab

Beck

Difficulty: BeginnerBeginner

tuner correct add songbook print version text version save to e-mail
chordsukulelecavacokeyboardtabbassdrumsharmonicsflute Guitar Pro
chords

Loser

  		TABBED BY:[email protected] (Richard T. Eppink)

A fairly simple song, nonetheless, there was a request so:

It's in drop D, so, do all that.

The intro/verse part is played with a slide and goes as follows

e---------------------------------------------------------------
B---------------------------------------------------------------
G---------------------------------------------------------------
D---0-0--12-0-12---12------0-0--12-0-12---12------------------
A---0-0--12-0-12---12\-----0-0--12-0-12---12\-----------------
D---0-0--12-0-12---12\----0-0--12-0-12---12\----------------

That continues over and over through out.

The other part, that is played over the slide part is as
follows:

e---------------------------------------------------------------
B-----------7-7-7-5-5-----------7-7-7-8-8-----------------------
G---7-7-9-7-------------7-7-9-7---------------------------------

And that is also repeated over and over at different parts.
	  

Search Paypal
auto scroll beats size up size down change color hide chords drawings
tab show chords e-chords YouTube Clip e-chords hide all tabs e-chords go to top tab