Beastie Boys

White Shadow

Beastie Boys

tabs

by  BRUNBLAZKOWSKI

save to print version add songbook text version e-mail correct tuner
chordsukulelecavacokeyboardtabbassdrumsharmonicaflute Guitar Pro
close

there isn't a video lesson for this song

chords

White Shadow

	  		
e|-------------------------------------| 
B|-------------------------------------| 
G|-9--9-9---------10-10-10-12-12-12-12-| 
D|-9--9-9-9-9-9-9-10-10-10-12-12-12-12-| x8 
A|-7--7-7-9-9-9-9-8--8--8--10-10-10-10-| 
E|--------7-7-7-7----------------------| 

Chorus 

e|-----------------------------| 
B|-----------------------------| 
G|-9-9-9-----------------------| 
D|-9-9-9-9-9-9-9-3-3-3-5-5-5-5-| x4 
A|-7-7-7-9-9-9-9-3-3-3-5-5-5-5-| 
E|-------7-7-7-7-1-1-1-3-3-3-3-| 

e|-------------------------------------| 
B|-------------------------------------| 
G|-9--9-9---------10-10-10-12-12-12-12-| 
D|-9--9-9-9-9-9-9-10-10-10-12-12-12-12-| x4 
A|-7--7-7-9-9-9-9-8--8--8--10-10-10-10-| 
E|--------7-7-7-7----------------------| 

e|-------------------------| 
B|-------------------------| 
G|-4-444-------------7-7-5-| 
D|-4-444-4-4-5-7-777-7-7-5-| x4 
A|-2-222-4-4-5-7-777-5-5-3-| 
E|-------2-2-3-5-555-------| 

Drum bit 

e|-3------------| 
B|-0------------| 
G|-0------------| 
D|-0-(Ring out)-| x4 
A|-2------------| 
E|-3------------| 

e|-------------------------------------| 
B|-------------------------------------| 
G|-9--9-9---------10-10-10-12-12-12-12-| 
D|-9--9-9-9-9-9-9-10-10-10-12-12-12-12-| x8 
A|-7--7-7-9-9-9-9-8--8--8--10-10-10-10-| 
E|--------7-7-7-7----------------------| 

Chorus 

e|-----------------------------| 
B|-----------------------------| 
G|-9-9-9-----------------------| 
D|-9-9-9-9-9-9-9-3-3-3-5-5-5-5-| x4 
A|-7-7-7-9-9-9-9-3-3-3-5-5-5-5-| 
E|-------7-7-7-7-1-1-1-3-3-3-3-| 

e|-------------------------------------| 
B|-------------------------------------| 
G|-9--9-9---------10-10-10-12-12-12-12-| 
D|-9--9-9-9-9-9-9-10-10-10-12-12-12-12-| x4 
A|-7--7-7-9-9-9-9-8--8--8--10-10-10-10-| 
E|--------7-7-7-7----------------------| 

e|-------------------------| 
B|-------------------------| 
G|-4-444-------------7-7-5-| 
D|-4-444-4-4-5-7-777-7-7-5-| x2 
A|-2-222-4-4-5-7-777-5-5-3-| 
E|-------2-2-3-5-555-------| 

e|-------------------------------------------| 
B|-------------------------------------------| 
G|-4-4-4-------------7-7-5-4-4-4-------------| 
D|-4-4-4-4-4-5-7-7-7-7-7-5-4-4-4-4-4-5-7-7-7-| 
A|-2-2-2-4-4-5-7-7-7-5-5-3-2-2-2-4-4-5-7-7-7-| 
E|-------2-2-3-5-5-5-------------2-2-3-5-5-5-| 
		  

See also:

tabs Usher - U Remind Me tabs Usher - Bad Girl (ver. 2) tabs Nelly - Ride Wit Me (ver. 2) tabs Eminem - Without me tabs Usher - Yeah (ver. 4) tabs Missy Elliot - Get Ur Freak On
e-chords

Other versions:

tabs Beastie Boys - White Shadow tabs Coldplay - White shadows
auto scroll beats size up size down change color hide chords drawings
tab show chords e-chords YouTube Clip e-chords hide all tabs e-chords go to top tab

share