Bear Hands

Wicksey Boxing

Bear Hands

tabs

by  TARIKIKE

save to print version add songbook text version e-mail correct tuner
chordsukulelecavacokeyboardtabbassdrumsharmonicaflute Guitar Pro
close

there isn't a video lesson for this song

chords

Wicksey Boxing

	  		

Tuning: EADGBe (standard) 
As with all Bear Hands songs, tons of reverb and a bit of gain. 

In the background of almost the entire song is just this: 
e|---------------------------------------------------------------------------| 
B|-------------------15--15--15--15------------------------------------------| 
G|--16--16--16--16-----16--16--16--16----------------------------------------| 
D|----17--17--17--17---------------------------------------------------------| 
A|---------------------------------------------------------------------------| 
E|---------------------------------------------------------------------------| 

Occasionally at the beginning of each measure the second guitar goes like this EXTREMELY slowly: 
e|------------------------------------------------------------| 
B|--7/8-------------------------------------------------------| 
G|------------------------------------------------------------| 
D|------------------------------------------------------------| 
A|------------------------------------------------------------| 
E|------------------------------------------------------------| 
The only solo in the song goes: 
e|------------------------------------------------------------| 
B|--7/8/12--12--12---15--15--15-------------------------------| 
G|--------12--12--12------------------------------------------| 
D|------------------------------------------------------------|  
A|------------------------------------------------------------| 
E|------------------------------------------------------------|  \ 
                                                                  x2 
e|------------------------------------------------------------|  / 
B|--7/8/12--12--12--12--12--12--12--12--12--------------------| 
G|--------12--12--12--12--12--12--12--12----------------------| 
D|------------------------------------------------------------|  
A|------------------------------------------------------------| 
E|------------------------------------------------------------| 

That's pretty much it. 


************************************ 

| /   slide up 
| \   slide down 
| h   hammer-on 
| p   pull-off 
| ~   vibrato 
| +   harmonic 
| x   Mute note 
| b   Bend 
| pb  Pre-bend 
| br  Bend release 
| pbr Pre-bend release 
| brb Bend release bend 

************************************ 
		  

auto scroll beats size up size down change color hide chords drawings
tab show chords e-chords YouTube Clip e-chords hide all tabs e-chords go to top tab

share