Be Bop Deluxe

Autosexual

Be Bop Deluxe

tabs

by  UBIRBOMFIM

save to print version add songbook text version e-mail correct tuner
chordsukulelecavacokeyboardtabbassdrumsharmonicaflute Guitar Pro
close

there isn't a video lesson for this song

chords

Autosexual

	  		   


Intro:  

                                                                     

e|~~~~~~~~~15----------15------15-|-----15------15------15------15~~~  
B|--------------------------------|--------------------------------|  
G|~~~~~~~~~12----------12------12-|-----12------12------12------12~~~  
D|--------------------------------|--------------------------------|  
A|--------------------------------|--------------------------------|  
E|--------------------------------|--------------------------------|  

 | 1 - & - 2 - & - 3 - & - 4 - & -| 1 - & - 2 - & - 3 - & - 4 - & -|  


Repeat until...  


Part A:  


   E9                                                                

e|--------------------------------|--------------------------------|  
B|--------------------------------|-------------11------12---------|  
G|--------------------------------|-------------11------12---------|  
D|-5------------------------------|-------------11------12------5~~~  
A|---------7-----------5---7------|-------------10------11---------|  
E|-------------5--h7-----------0--|--------------------------------|  

 | 1 - & - 2 - & - 3 - & - 4 - & -| 1 - & - 2 - & - 3 - & - 4 - & -|  


   E9                          C7               B7                   

e|--------------------------------|--------------------------------|  
B|--------------------------------|-----5---------------4----------|  
G|--------------------------------|-----3---------------2----------|  
D|~~~~~~~~------------------------|-----5---------------4----------|  
A|---------7-----------5---7---3--|-------------2------------------|  
E|-------------5--h7--------------|--------------------------------|  


Repeat until...  


Part B:  

   A       G#  A               G#   A       G#  A               G#   
         " A   way                          we  go... "  
e|--------------------------------|--------------------------------|  
B|--------------------------------|--------------------------------|  
G|--------------------------------|--------------------------------|  
D|-7---7---6---7---------------6--|-7---7---6---7---------------6--|  
A|-7---7---6---7---------------6--|-7---7---6---7---------------6--|  
E|-5---5---4---5---------------4--|-5---5---4---5---------------4--|  


   A       G#  A                                                     
         " so  fast... "  
e|--------------------------------|--------------------------------|  
B|--------------------------------|--------------------------------|  
G|--------------------------------|---------0-----------0----------|  
D|-7---7---6---7------------------|-----4-----------2-----------0--|  
A|-7---7---6---7---------------4--|-5-----------3-----------2------|  
E|-5---5---4---5------------------|--------------------------------|  


Repeat.  



Guitar Solo:  

   E9                                                                
01:06  
e|--------------------------------|--------------------------------|  
B|--------------------------------|--------------------------------|  
G|--------------------------------|-----------------------------9~~~  
D|--------------------------------|---------------------9---11-----|  
A|--------------------------------|--------------------------------|  
E|--------------------------------|--------------------------------|  


   E9                                                                

e|--------------------------------|--------------------------------|  
B|--------------------------------|--------------------------------|  
G|~~~~~~~~------------------------|-----------------------------9~~~~  
D|---------11--9------------------|---------------------9---11-----|  
A|---------------11s9--7---9---7~~~~~~~~\--------------------------|  
E|--------------------------------|--------------------------------|  


   E9                                                                

e|-------------------------9------|--------------------------------|  
B|---------------------9-------12-|--------------------------------|  
G|~~~~~~~~-----9---11^------------|-11^-9---11------9~~~-----------|  
D|---------11---------------------|-------------11----------11--9--|  
A|--------------------------------|--------------------------------|  
E|--------------------------------|--------------------------------|  


   E9                                                                
01:13  
e|--------------------------------|-----------------------------9~~~~  
B|--------------------------------|---------------------12^--------|  
G|-9~~~~~~------------------------|--------------------------------|  
D|-9~~~~~~-11--9------------------|--------------------------------|  
A|---------------11s9--7---9---7~~~~~~~~\--------------------------|  
E|--------------------------------|--------------------------------|  


   E9                                                                

e|---------9---------------9------|--------------------------------|  
B|-------------12--------------12-|--------------------------------|  
G|-----------------11^r~----------|-11^r11p9-11p9---11--9-------9~~~  
D|--------------------------------|--------------11---------11-----|  
A|--------------------------------|--------------------------------|  
E|--------------------------------|--------------------------------|  


   E9                                                                
01:19  
e|--------------------------------|-12-----------------------------|  
B|-----------------------------12-|-----15~~-----------------------|  
G|~~~~~------------9---11-/13-----|--------------------------------|  
D|---------11--9------------------|--------------------------------|  
A|--------------------------------|--------------------------------|  
E|--------------------------------|--------------------------------|  


   E9                                                                
01:23  
e|-----15b17~~~~~~~15~~^--12h15p12--12-----------------------------|  
B|--------------------------------15--15-12--12--------------------|  
G|--------------------------------|--------14--12-14--------12p11--|  
D|--------------------------------|-----------------14-12p11------14-  
A|--------------------------------|--------------------------------|  
E|--------------------------------|--------------------------------|  


   E9                                                                

e|--------------------------------|--------------------------------|  
B|--------------------------------|--------------------------------|  
G|-11------12^-----14--12---------|--------------------------------|  
D|----14~~~----14--14------14--12-|--------------------------------|  
A|--------------------------------14s12-10--12--10-----------------|  
E|--------------------------------|-----------------12\------------|  


   E9                                                                
01:29  
e|--------------------------------|--------------------------------|  
B|-----------------12~~^r~~~~~~---|--------------------------------|  
G|-------------12--12~~^r~~~~~~---|-12------14--12-----------------|  
D|-----12--14---------------------|-----14--14------14--12--14\----|  
A|--------------------------------|--------------------------------|  
E|/12-----------------------------|--------------------------------|  



Part C:  

   D                                                                 
 " Speeding I'm    speeding on the  highways really screaming like a... "  
e|-2------------------------------|--------------------------------|  
B|-3------------------------------|--------------------------------|  
G|-2------------------------------|--------------------------------|  
D|-0------------------------------|--------------------------------|  
A|--------------------------------|--------------------------------|  
E|--------------------------------|--------------------------------|  


   A                                                                
 " jet tonight... "  
e|--------------------------------|--------------------------------|  
B|-2------------------------------|--------------------------------|  
G|-2------------------------------|--------------------------------|  
D|-2------------------------------|--------------------------------|  
A|-0------------------------------|--------------------------------|  
E|--------------------------------|--------------------------------|  
                  (                 pick scrape                 )  

Repeat.  



( Lick... )  

   A (x0222x)                                                        
 " streamlined thrill... "  
e|--------------------------------|--------------------------------|  
B|--------------------------------|--------------------------------|  
G|---------4b6~~~~~~~~~~~~~~~~~~~~~~4---2---4---2------------------|  
D|--------------------------------|-----------------4--------------|  
A|--------------------------------|---------------------3---2---0--|  
E|--------------------------------|--------------------------------|  




Part D:  

   E9                                                                
01:57  
e|-15--14------12-----------------|-----------------------------15-|  
B|---------15------12--15---------|--------------------------------|  
G|-------------------------14--12-|--------------------------------|  
D|--------------------------------|--------------------------------|  
A|--------------------------------|--------------------------------|  
E|--------------------------------|--------------------------------|  


   E9                                                                

e|-----14------12-----------------|--------------------------------|  
B|---------15------12--15---------|--------------------------------|  
G|-------------------------14--14^~~~r14p12h14~~~~~-12-------------|  
D|--------------------------------|---------------------14--12-----|  
A|--------------------------------|--------------------------------|  
E|--------------------------------|--------------------------------|  


   E9                                                                
02:05  
e|-15--14------12-----------------|-----------------------------15~~  
B|---------15------12--15---------|--------------------------------|  
G|-------------------------14--12-|--------------------------------|  
D|--------------------------------|--------------------------------|  
A|--------------------------------|--------------------------------|  
E|--------------------------------|--------------------------------|  


   E9                                                                

e|-----14------12-----------------|-12-----------------------------|  
B|---------15------12--15------12-|-----15-------------------------|  
G|-------------------------14^----|---------14^r~12-14------12-----|  
D|--------------------------------|---------------------14------14~~  
A|--------------------------------|--------------------------------|  
E|--------------------------------|--------------------------------|  


   E9                                                                

e|--------------------------------|--------------------------------|  
B|--------------------------------|-----------------------------12~~  
G|--------------------------------|-----------------------------12~~  
D|-----12-------------------------|-----------------------------12~~\  
A|-------14s12-10--12------10-----|---------------------12--14-----|  
E|---------------------12------12~~~\------------------------------|  


   E9                                                                

e|--------------------------------|-----------------------------15~~  
B|-------------12--------------12-|-------------12-----------------|  
G|-------------12--------------12-|-------------12----------12-----|  
D|\------------12\-------------12\--------------12\-----12---------|  
A|--------/14-------------/14-----|--------/14---------------------|  
E|--------------------------------|--------------------------------|  


   E9                                                                
02:18  
e|-15--14------12-----------------|--------------------------------|  
B|---------15------12--15---------|--------------------------------|  
G|-------------------------14--12-|-------------------------14^~~~~~  
D|-----------------------------12-|--------------------------------|  
A|--------------------------------|--------------------------------|  
E|--------------------------------|--------------------------------|  


   E9                                                                

e|--------------------------------|--------------------------------|  
B|--------------------------------|--------------------------------|  
G|-14~~~~~~12--------------12-----|-----------------12-------------|  
D|-------------14--12------12-----|---------12----------14\--------|  
A|---------------------14------14-|-----14------14-----------------|  
E|--------------------------------|-12-----------------------------|  



Repeat part B:  


Repeat part A:  ( with E-Bow solo and piano solo, to fade... )  


 
		  

Full key step upFull key step up
Half key step upHalf key step up
Half key step downHalf key step down
Full key step downFull key step down
auto scroll beats size up size down change color hide chords drawings
tab show chords e-chords YouTube Clip e-chords hide all tabs e-chords go to top tab

share