Banda Demolições

Parasitando

Banda Demolições

tabs

by  FABIOGUITARMAN

save to print version add songbook text version e-mail correct tuner
chordsukulelecavacokeyboardtabbassdrumsharmonicaflute Guitar Pro
close

there isn't a video lesson for this song

chords

Parasitando

	  		              


Intro: 
                                               
e|------------|                                
B|------------|                                
G|------------| (5x)                             
D|------------|                                
A|---1-0------|                                
D|-------2----|                               
                                             
                                               
e|-------------------------------|             
B|-------------------------------|             
G|-------------------------------|             
D|----------------------- 3~-----|             
A|---1-0-----1-0----1-0-- 1~-----|             
D|-------2-------2---------------|            
                                               
           
                                         

 Riff   
                    
e|---------------------------------------------------| 
B|---------------------------------------------------| 
G|---------------------------------------------------|  
D|----------------33-3--22-2-------------------------| 
A|---2~-----------11-1--00-0---5--2------------------|  
D|---2~--2-2222----------------5--2-22222------------|   
         . ....      .     .        .....                  
                                                            (8x)
                                                          
e|---------------------------------------------------|   
B|---------------------------------------------------| 
G|---------------------------------------------------| 
D|---------------------------------------------------| 
A|---5h7--7s8-7h8------------------------------------| 
D|---5h7--7s8-7h8------------------------------------| 

Refrão
                    
e|---------------------------------------------------|           
B|---------------------------------------------------|     
G|---------------------------------------------------|     
D|---2~----------5----7----8--2~---------------------|     
A|---0~--0-0000--3-00-5-00-6--0~-0 0000--------------|     
D|---------------------------------------------------|     
         . ....                  . ....                      
                                                              
                                                           
LICK GTR 1.                                                
e|------------------|                                      
B|------------------|                                       
G|------------------|                                   (2x) 
D|------------------|                                      
A|---s6-5-3-5-------|                                      
D|------------3-5---|                                      
                                                           
                                                           
LICK GTR.2                                                 
e|------------------|                                      
B|------------------|                                      
G|---s8-7-5-7-------|                                      
D|------------3-5---|                                      
A|------------------|                                      
D|------------------|                                      
                                                           
  
RIFF (7x) 




REFRÃO  



RIFF PRINCIPAL (2x)  


RIFF FINAL 
E|-----------------------------------| 
B|-----------------------------------| 
G|-----------------------------------| 
D|----------------33-3--22-2---------|(8x)
A|---2~-----------11-1--00-0---5-----| 
D|---2~--2-2222----------------5-----| 
         . ....      .     .  



                                                
E|------------------|                                      
Be------------------|                                       
G|------------------|                                       
D|------------------|                                      
A|---s6-5-3-5-------|                                      
D|------------3-5---|                                      
                                                          
e|------------------|                                      
B|------------------|                                     
G|---s8-7-5-7-------|                                      
D|------------3-5---|                                      
A|------------------|                                      
D|------------------|   



e|---------------------------------------------------|         
B|---------------------------------------------------|    
G|---------------------------------------------------|     
D|---------------------------------------------------|     
A|---2~~~~~~~~~~~~~~~~-------------------------------|     
D|---2~~~~~~~~~~~~~~~~-------------------------------|  
                     
 
		  

See also:

tabs El Bando - La Historia Del Mamut tabs Banda Demolições - Parasitando
e-chords

Other versions:

tabs Banda Demolições - Parasitando
auto scroll beats size up size down change color hide chords drawings
tab show chords e-chords YouTube Clip e-chords hide all tabs e-chords go to top tab

share