Banda Aveloz

Eclipse Total

Banda Aveloz

tabs Beginner beginner

by  JUNIOR_BILU

save to print version add songbook text version e-mail correct tuner
chordsukulelecavacokeyboardtabbassdrumsharmonicaflute Guitar Pro
close

there isn't a video lesson for this song

chords

Eclipse Total

	  		    B           F#            G#m            C#m       E           
e|--------------------------------------------------------------| 
B|-------------------9-11--11/12~-----------7--7----------------| 
G|--11-11-11--11-11-----------------8-8-9-9------9--9-8-8-6-6---| 
D|--------------------------------------------------------------| 
A|--------------------------------------------------------------| 
E|--------------------------------------------------------------| 

      G#m     F#         B           F#                G#m 
e|--------------------------------------------------------------| 
B|---------------------------------------14b16r--12--14b16r-12--| 
G|--5-6/8--9-8-6~---6/11-11-11-11--11-11------------------------| 
D|--------------------------------------------------------------| 
A|--------------------------------------------------------------| 
E|--------------------------------------------------------------| 

e|-------------12~---12-14b16-14~~------------------------------| 
B|--12~---14~---------------------------------------------------| 
G|--------------------------------------------------------------| 
D|--------------------------------------------------------------| 
A|--------------------------------------------------------------| 
E|--------------------------------------------------------------| 

                    C#m            F# 
 Como é bom fazer amor só com você 


O meu msn é [email protected] 
Valeu gente boa 
Qualquer duvida estou oline.... 
Serraria - PB 
		  

Full key step upFull key step up
Half key step upHalf key step up
Half key step downHalf key step down
Full key step downFull key step down
hide glossary

See also:

tabs Luíz Gonzaga - Asa Branca (Viola Caipira) tabs Olivan e Seus Teclados - Tico Tico No Fuba tabs Aviões do Forró - Meu Novo Namorado tabs Saia Rodada - Risca Faca tabs Pepe Moreno - Americana Quer Beber tabs Aviões do Forró - Tontos e Loucos
e-chords

Other versions:

tabs Banda Aveloz - Eclipse Total
auto scroll beats size up size down change color hide chords drawings
tab show chords e-chords YouTube Clip e-chords hide all tabs e-chords go to top tab

share