Balance And Composure

For A Walk

Balance And Composure

tabs

by  ALEFFEDERICO

save to print version add songbook text version e-mail correct tuner
chordsukulelecavacokeyboardtabbassdrumsharmonicaflute Guitar Pro
close

there isn't a video lesson for this song

chords

For A Walk

	  		
Intro 

E|-----------------|------------------------| 
B|-----------------|------------------------| 
G|--11~------13~---|--11-11-11-11/13-13-13--| 
D|--11~------13~---|--11-11-11-11/13-13-13--| 
A|--9~-------11~---|--9--9--9--9//11-11-11--| 
E|--9~-------------|------------------------| 



Verse/Chorus 

E|-----------|------------------------------------------------------------------------| 
B|-----------|------------------------------------------------------------------------| 
G|-----------|--13-13--13-13--13-13--13-13--13-13--13-13--13-13--13-13--13-13--13-13--| 
D|--x-x-x-x--|--13-13--13-13--13-13--13-13--13-13--13-13--13-13--13-13--13-13--13-13--| 
A|--x-x-x-x--|--11-11--11-11--11-11--11-11--11-11--11-11--11-11--11-11--11-11--11-11--| 
E|--x-x-x-x--|------------------------------------------------------------------------| 

E|---------------------------------------------------------------------------------| 
B|---------------------------------------------------------------------------------| 
G|--13-13--13-13--13-13--13-13--13-13--13-13--13-13--13-13---11-11-11-11/13-13-13--| 
D|--13-13--13-13--13-13--13-13--13-13--13-13--13-13--13-13---11-11-11-11/13-13-13--| 
A|--11-11--11-11--11-11--11-11--11-11--11-11--11-11--11-11---9--9--9--9-/11-11-11--| 
E|---------------------------------------------------------------------------------| 

E|-----------| 
B|-----------| 
G|-----------| 
D|--x-x-x-x--| 
A|--x-x-x-x--| 
E|--x-x-x-x--| 



Interlude 

   Guitar 1 
E|----------------| 
B|----------------| 
G|----------------| 
D|----4~----4~----| 
A|----4~----4~----| 
E|----2~----2~----| 

   Guitar 2 
E|--------------------------------------------------------| 
B|--------------------------------------------------------| 
G|--------------------------------------------------------| 
D|--------------------------------------------------------| 
A|--------------------------------------------------------| 
E|--9--9--9---9--9--9---7-7-7-7/9--9--9---9--9--9--9-9-9--| 



Chorus 

E|------------------------------------------------------------------------| 
B|------------------------------------------------------------------------| 
G|--13-13--13-13--13-13--13-13--13-13--13-13--13-13--13-13--13-13--13-13--| 
D|--13-13--13-13--13-13--13-13--13-13--13-13--13-13--13-13--13-13--13-13--| x4 
A|--11-11--11-11--11-11--11-11--11-11--11-11--11-11--11-11--11-11--11-11--| 
E|------------------------------------------------------------------------| 



Bridge 

E|-----------------------------|-----------------------------| 
B|-----------------------------|-----------------------------| 
G|-----------------------------|-----------------------------| 
D|-----------------------------|-----------------------------| 
A|-----------------------------|-----------------------------| 
E|--7--4--4---4--4--4---4-4-4--|--9--4--4---4--4--4---4-4-4--| 

E|-----------------------------|-----------------------------| 
B|-----------------------------|-----------------------------| 
G|-----------------------------|-----------------------------| 
D|-----------------------------|-----------------------------| 
A|--6--------------------------|-----------------------------| 
E|-----7--7---7--7--7---7-7-7--|--9--4--4---4--4--4---4-4-4--| 

E|-----------------------------|-----------------------------| 
B|-----------------------------|-----------------------------| 
G|-----------------------------|-----------------------------| 
D|-----------------------------|-----------------------------| 
A|-----------------------------|-----------------------------| 
E|--7--4--4---4--4--4---4-4-4--|--9--4--4---4--4--4---4-4-4--| 

E|-----------------------------|-----------| 
B|-----------------------------|-----------| 
G|-----------------------------|-----------| 
D|-----------------------------|-----------| 
A|--6--------------------------|-----------| 
E|-----7--7---7--7--7---7-7-7--|--9--4--4--| 



Chours 

E|------------------------------------------------------------------------| 
B|------------------------------------------------------------------------| 
G|--13-13--13-13--13-13--13-13--13-13--13-13--13-13--13-13--13-13--13-13--| 
D|--13-13--13-13--13-13--13-13--13-13--13-13--13-13--13-13--13-13--13-13--| x4 
A|--11-11--11-11--11-11--11-11--11-11--11-11--11-11--11-11--11-11--11-11--| 
E|------------------------------------------------------------------------| 

E|--------------------------------------------------------| 
B|--------------------------------------------------------| 
G|--------------------------------------------------------| 
D|--------------------------------------------------------| x2 
A|--------------------------------------------------------| 
E|--9--9--9---9--9--9---7-7-7-7/9--9--9---9--9--9--9-9-9--| 



Outro 

E|-----------| 
B|-----------| 
G|-----------| 
D|--x-x-x-x--| x2 
A|--x-x-x-x--| 
E|--x-x-x-x--| 

 
		  

auto scroll beats size up size down change color hide chords drawings
tab show chords e-chords YouTube Clip e-chords hide all tabs e-chords go to top tab

share