save to print version add songbook text version e-mail correct tuner
chordsukulelecavacokeyboardtabbassdrumsharmonicaflute Guitar Pro
close

there isn't a video lesson for this song

chords

Enemy

	  		

Hope this tab helps! 

Intro 0:00 -00:40 
E|--------0--------------3-----------3-----------3----------|--| 
B|-----------3--------------0-----------0-----------0-------|--| 
G|--------------0-----0-----------0-----------0--------2p0--|--| 
D|----------------------------------------------------------|--| 
A|-----2-----------3-----------3-----------3----------------|--| 
E|--0-------------------------------------------------------|--| 


Rhythm parts: (Two Guitars) 


Guitar 1 
E|-------------------------------| 
B|-------------------------------| 
G|-----------5-------2--2--2--2--| 
D|--2--2--2--5-(x12)-2--2--2--2--| 
A|--2--2--2--3-------0--0--0--0--| 
E|--0--0--0----------------------| 

Guitar 2 (tremolo picking) 

E|---------------------------| 
B|---------------------------| 
G|--17t--16t--19t--21t--16t--| 
D|---------------------------| 
A|---------------------------| 
E|---------------------------| 


2:27 - end of song 

Guitar 1 
E|--------3-----------------------3-------------------| 
B|--------3-----------0-----------3-----------1p0-----| 
G|-----------------0-----0-----------------0-------0--| 
D|-----0--------0--------------0--------0-------------| 
A|--3--------2--------------3--------2----------------| 
E|----------------------------------------------------| 


Guitar 2 play around with these notes starting at 3:22. 
E|-----------------------| 
B|-----5-----3-----------| 
G|--4-----2-----2\4--4b--| 
D|-----------------------| 
A|-----------------------| 
E|-----------------------| 
		  

See also:

tabs Red Hot Chili Peppers - Dani california (solo) tabs Red Hot Chili Peppers - Under The Bridge (ver. 2) tabs Red Hot Chili Peppers - Otherside (intro) tabs Incubus - Megalomaniac tabs Incubus - I Wish You Were Here tabs Good Charlotte - Lifestyles of the Rich and Famous
e-chords

Other versions:

tabs Sevendust - Enemy tabs Jack Johnson - Enemy tabs Skip The Use - Enemy tabs Balance And Composure - Enemy tabs Blue Stahli - Enemy tabs Beartooth - Enemy
auto scroll beats size up size down change color hide chords drawings
tab show chords e-chords YouTube Clip e-chords hide all tabs e-chords go to top tab

share