Bad Religion

home > Bad Religion

True North Tab

Bad Religion

Difficulty: nolevelnolevel

by tercmoraes

tuner correct add songbook print version text version save to e-mail
chordsukulelecavacokeyboardtabbassdrumsharmonicsflute Guitar Pro
chords

True North

  		 

Intro 
e|-------------------------------------------------| 
B|-------------------------------------------------| 
G|-12-12-12---12-12-12---8-8-8-8-8-10--------------| 
D|-12-12-12---12-12-12---8-8-8-8-8-10-12-12--------| 
A|-10-10-10---10-10-10---6-6-6-6-6-8--12-12--------| 
E|------------------------------------10-10--------| 

e|-------------------------------------------------| 
B|-------------------------------------------------| 
G|-12-12-12---12-12-12---8-8-8-8-8-10--------------| 
D|-12-12-12---12-12-12---8-8-8-8-8-10-12-12--------| 
A|-10-10-10---10-10-10---6-6-6-6-6-8--12-12--------| 
E|------------------------------------10-10--------| 


Intro Pt 2 
e|-------------------------------------------------| 
B|-------------------------------------------------| 
G|-----------------8-8-8-8-10-7-7------------------| X 4 
D|-5-5-5-5-5-5-5-5-8-8-8-8-10-7-7------------------| 
A|-5-5-5-5-5-5-5-5-6-6-6-6-8--5-5------------------| 
E|-3-3-3-3-3-3-3-3---------------------------------| 


Verse Riff       
   ...Unrepentant Vagabond...   
e|------------------------------------------------| 
B|------------------------------------------------| 
G|---------------8-88-88-10-7-7-------------------| X 4 
D|-5-5-55-55-5-5-8-88-88-10-7-7-------------------| 
A|-5-5-55-55-5-5-6-66-66-8--5-5-------------------| 
E|-3-3-33-33-3-3----------------------------------| 
   * * ** **     * ** ** 

Pre-Chorus Riff 
                     ... But What good is it to Me? ... 
e|-------------------------------------------------------| 
B|-------------------------------------------------------| 
G|-8-8---8-8---10-10--10-10--8-8---8-8---5-5-5-8-8-7-7---| 
D|-8-8---8-8---10-10--10-10--8-8---8-8---5-5-5-8-8-7-7---| 
A|-6-6---6-6---8--8---8--8---6-6---6-6---3-3-3-6-6-5-5---| 
E|-------------------------------------------------------| 


Chorus                        ...The World's Not My Responsibility... 
e|-------------------------------------------------------------------| 
B|-------------------------------------------------------------------| 
G|-----------------8-8-8-8-8-8-8-8-5-5-5-5-5-5-5-5-7-7-7-7-7-7-7-7---| X 2 
D|-5-5-5-5-5-5-5-5-8-8-8-8-8-8-8-8-5-5-5-5-5-5-5-5-7-7-7-7-7-7-7-7---| 
A|-5-5-5-5-5-5-5-5-6-6-6-6-6-6-6-6-3-3-3-3-3-3-3-3-5-5-5-5-5-5-5-5---| 
E|-3-3-3-3-3-3-3-3---------------------------------------------------| 

   ... When I Find True North! 
e|-----------------------------------| 
B|-----------------------------------| 
G|---------8-88-88-5-55-55-7-77-77---| X 3 
D|-5-55-55-8-88-88-5-55-55-7-77-77---| 
A|-5-55-55-6-66-66-3-33-33-5-55-55---| 
E|-3-33-33---------------------------| 

   ... Keep Searching Till The End! 
e|-----------------------------------| 
B|-----------------------------------| 
G|-----------------------------------| 
D|-5-5------5-5------5-5------5------| 
A|-5-5------5-5------5-5------5------| 
E|-3-3-3333-3-3-3333-3-3-3333-3------| 
       ****     ****     **** 

2nd Part of the Song.  Rest for 2 Beats, then... 

Verse Riff       
   ... Tempting fate and cheating Death ...      
e|------------------------------------------------| 
B|------------------------------------------------| 
G|---------------8-88-88-10-7-7-------------------| X 4 
D|-5-5-55-55-5-5-8-88-88-10-7-7-------------------| 
A|-5-5-55-55-5-5-6-66-66-8--5-5-------------------| 
E|-3-3-33-33-3-3----------------------------------| 
   * * ** **     * ** ** 

Pre-Chorus Riff 
                     ... But What good is it to Me? ... 
e|-------------------------------------------------------| 
B|-------------------------------------------------------| 
G|-8-8---8-8---10-10--10-10--8-8---8-8---5-5-5-8-8-7-7---| 
D|-8-8---8-8---10-10--10-10--8-8---8-8---5-5-5-8-8-7-7---| 
A|-6-6---6-6---8--8---8--8---6-6---6-6---3-3-3-6-6-5-5---| 
E|-------------------------------------------------------| 

Chorus                        ...The World's Not My Responsibility... 
e|-------------------------------------------------------------------| 
B|-------------------------------------------------------------------| 
G|-----------------8-8-8-8-8-8-8-8-5-5-5-5-5-5-5-5-7-7-7-7-7-7-7-7---| X 2 
D|-5-5-5-5-5-5-5-5-8-8-8-8-8-8-8-8-5-5-5-5-5-5-5-5-7-7-7-7-7-7-7-7---| 
A|-5-5-5-5-5-5-5-5-6-6-6-6-6-6-6-6-3-3-3-3-3-3-3-3-5-5-5-5-5-5-5-5---| 
E|-3-3-3-3-3-3-3-3---------------------------------------------------| 

   ... When I Find True North! 
e|-----------------------------------| 
B|-----------------------------------| 
G|---------8-88-88-5-55-55-7-77-77---| X 4 (Note that you play this part 4 times, 
D|-5-55-55-8-88-88-5-55-55-7-77-77---|      Compared to three times like the last chorus) 
A|-5-55-55-6-66-66-3-33-33-5-55-55---| 
E|-3-33-33---------------------------| 

   ... Keep Searching Till The End! 
e|-----------------------------------| 
B|-----------------------------------| 
G|-----------------------------------| 
D|-5-5------5-5------5-5------5------| 
A|-5-5------5-5------5-5------5------| 
E|-3-3-3333-3-3-3333-3-3-3333-3------| 
       ****     ****     **** 
 

 
	  

Search Paypal
auto scroll beats size up size down change color hide chords drawings
tab show chords e-chords YouTube Clip e-chords hide all tabs e-chords go to top tab