Bad Religion

home > Bad Religion

Slumber Tab

Bad Religion

Difficulty: nolevelnolevel

tuner correct add songbook print version text version save to e-mail
chordsukulelecavacokeyboardtabbassdrumsharmonicsflute Guitar Pro
chords

Slumber

Year: 1994 - Album: Punk Rock Songs: The Epic Years

  		This song is really a piece of cake: the melody of the guitar is the
same as the medlody of the vocals...
 I first (1)tabbed something usefull if you're not very used to sing & play
at the same time.  Then (2) there's the tab that sounds damn close to me...
and i think it's right if anyone has any correction then send them
to me (see above), (no insults, please..)

 Tune ALL string half a tone down

(eb-Bb-Gb-Db-Ab-Eb)

1.  Intro

 F  -  G  -  A

then vocals start:

Riff A

e:---------------------------------------------------------------------|
B:---------------------------------------------------------------------|
G:---------------------------------------------------------------------|
D:--3----3-3----2----3-3------------------------------------------0|
A:---------------------------------------------3--3---2--2---3--3---|
E:---------------------------------------------------------------------|

    So       you're feeling unimportant       'Cuz you've got nothing to say

e:-----------------------------------------------------------------------|
B:-----------------------------------------------------------------------|
G:-----------------------------------------------------------------------|
D:--3----3-3----2----3-3--------------------------------------------0|
A:---------------------------------------------3--3---2--2---3--3---2-|
E:-----------------------------------------------------------------------|

    And    your life is just a ramble             No one understand you anyway

Chorus:

Riff B

  F5          G5            A5              F5//             G5//
A5/  //

Slumber will come soon-----,  and you are helping to put it to sleep----

  F5                          G5               C5           G5

Side by side we do our share, faithfully assuring that

  F5           G5          A5

Slumber will come soon.

2.

e:-----------------------------------------------|
B:----------------------------------------------|
G:------0-----------0--------------------------|
D:--3--------3--2--------------0--0----0-----|
A:----------------------------3---2---3--------|
E:-----------------------------------------------|

   So         you're          feeling unimportant

e:------------------------------------------------|
B:-----------------------------------------------|
G:------0-----------0---------------------------|
D:--3--------3--2--------------0--0----0----2|
A:----------------------------3---2---3-------0|
E:------------------------------------------------|

   'Cuz            you've        got nothing to say


Structure

Intro:  F  G  A

Verse 1: Riff A

Verse 2: Riff A

Chorus : Riff B

Verse 3: Riff A

Verse 4: Riff B (like the chorus)

Verse 5: Riff A

Outro :   Riff B


Verse 1:

So, you're feeling unimportant,

'Cuz you've got nothing to say.

And your live is just a ramble

No one understand you anyway


Verse2:

Well, I got a piece of news son,

That might make you change your mind

Your life is historically meaningfull

And spans a significant time



Chorus:

Slumber will come soon

And you are helping to put it to sleep

Side by side we do our share

Faithfully assuring that

Slumber will come soon.



Verse3:

Well, now do you feel a little better

Lift up your head and walk away

Knowing we're all in this togeter

For such a short time anyway



Verse 4:

There is just no time to parade around

Sulking, i would rather laugh than cry

The rich, the poor, the strong, the weak

We share this place together

And we pitch into help it die



Verse5:

I'm not too good at giving morals

And I don't fear the consequence

If life makes you scred and bitter

At least it's not for very long
	  

Full key step upFull key step up
Half key step upHalf key step up
Half key step downHalf key step down
Full key step downFull key step down
Search Paypal
auto scroll beats size up size down change color hide chords drawings
tab show chords e-chords YouTube Clip e-chords hide all tabs e-chords go to top tab