Bad Religion

home > Bad Religion

infected (intro) Tab

Bad Religion

Difficulty: BeginnerBeginner

by popoto789

tuner correct add songbook print version text version save to e-mail
chordsukulelecavacokeyboardtabbassdrumsharmonicsflute Guitar Pro
chords

infected (intro)

  		O x SIGNIFICA ABAFADO 

E--------------------------------------------------------------| 
B--------------------------------------------------------------| 
G-----------------------------x5-5-5--5-5-5--------------| <------2X 
D----------------------------x-3-3-3--7-7-7--------------| 
A----------x7-7-7--3-3-3---------------------------------| 
E----------x5-5-5--1-1-1---------------------------------| 



E------------------------------------------------------------| 
B------------------------------------------------------------| 
G------7-7---7-7-7-7------------------------------------| 
D------5-5---5-5-5-5------------------------------------| 
A-----------------------------------------------------------| 
E-----------------------------------------------------------| 


E--------------------------------------------------------------| 
B--------------------------------------------------------------| 
G-----------------------------x5-5-5--5-5-5--------------| <------2X 
D----------------------------x-3-3-3--7-7-7--------------| 
A----------x7-7-7--3-3-3---------------------------------| 
E----------x5-5-5--1-1-1---------------------------------| 


E---------------------------------------------------------------------| 
B---------------------------------------------------------------------| 
G------7-7---7-7-7-7-----------7-7-7-7-7---------------------| 
D------5-5---5-5-5-5-----------9-9-9-9-9---------------------| 
A--------------------------------------------------------------------| 
E--------------------------------------------------------------------| 


E--------------------------------------------------------------| 
B--------------------------------------------------------------| 
G-----------------------------5-5-5--5-5-5----------------| <------2X 
D-----------------------------3-3-3--7-7-7----------------| 
A----------7-7-7--3-3-3-----------------------------------| 
E----------5-5-5--1-1-1-----------------------------------| 

	  

Search Paypal
auto scroll beats size up size down change color hide chords drawings
tab show chords e-chords YouTube Clip e-chords hide all tabs e-chords go to top tab