Bad Religion

home > Bad Religion

Hear It Tab

Bad Religion

Difficulty: nolevelnolevel

tuner correct add songbook print version text version save to e-mail
chordsukulelecavacokeyboardtabbassdrummharmonicsflute Guitar Pro
chords

Hear It

Year: 1998 - Album: Punk Rock Songs: The Epic Years

  		Intro:
e|---------------------------------------------------------------------------|
B|---------------------------------------------------------------------------|
G|---------------------------------------------------------------------------|
D|-------------------5-5-5-5-5-5-5-5--7-7-7-7-7-7-7-7--12-12-12-12--7-7-7-7--|
A|--7-7-7-7-7-7-7-7--3-3-3-3-3-3-3-3--5-5-5-5-5-5-5-5--10-10-10-10--5-5-5-5--|
E|--5-5-5-5-5-5-5-5----------------------------------------------------------|

Verse
e|----------------------------------------------|
B|----------------------------------------------|
G|----------------------------------------------|
D|-------------------5-5-5-5--------------------|
A|--7-7-7-7-7-7-7-7--3-3-3-3--5-5-5-5--7-7-7-7--|
E|--5-5-5-5-5-5-5-5-----------3-3-3-3--5-5-5-5--|

Chorus
e|-------------------------------|
B|-------------------------------|
G|-------------------------------|
D|-----5-----7-7-7---------------|
A|--3--3--5--5-5-5--7-7-7-7-7-7--|
E|--1-----3---------5-5-5-5-5-5--|

Bridge
e|----------------------------------------------|
B|----------------------------------------------|
G|----------------------------------------------|
D|--------------------5-7-5---------------------|
A|----------------5-7-------7-5-----------------|
E|--5-5-3-5-8-5-8---------------8-5-------------|
	  

Search Paypal
auto scroll beats size up size down change color hide chords drawings
tab show chords e-chords YouTube Clip e-chords hide all tabs e-chords go to top tab