Bad Religion

home > Bad Religion

Atomic Garden Tab

Bad Religion

Difficulty: nolevelnolevel

tuner correct add songbook print version text version save to e-mail
chordsukulelecavacokeyboardtabbassdrummharmonicsflute Guitar Pro
chords

Atomic Garden

Year: 1992 - Album: Generator

  		Repeat Thruout The Verse Using Palm Mute Were Needed 
5th |-------- 7-------7-------5------5-----5-----5------7---7---7---5---5  
6th |--------5--------5-------3------3-----3-----3-----5----5---5---3-- 3  
 
Then When It Comes To The Chorus 
 
4th------------------------------------------------------------------------------------------ 
5th---7---5---3---2------------------------------------------------------------------------------ 
6th---5---3---1---0------------------------------------------------------------------------------ 
Play First Chord B4 It Says ?Come Out To Play and Play Until U Get To ?And We?ll Pretend? 
 
4th---5---5------------------------------------------------------------------------------------ 
 
5th---3---3----5---5---7---7---3---3---5---5---2---2----------------------------------------------------- 
 
6th---0---0----3---3---5---5---1---1---5---3---0---0---------------------------------------------------- 
 
As soon as u have played the last chord play straight into the Verse above and then repeat it again 
then u come to the part of ?I Hope Theres Nothing Wrong Out There? 
 
4th------------------------------------------------------------------------------------------ 
 
5th---5---5---5---5---5---5----3---3---5------------ Repeat after u have played it twice move on  
 
6th---3---3---3---3---3---3----1---1---3------------------------------------------------------------- 
 
After that nit is out there is a high pitched noise which is played on the bottom string 
 
1st-------------------17---19---17--19--17--19-17--19-----17---16----15------------------------------ 
 
After that is just the very Beginning all over again the u need to end on the following pattern 
 
5th-----7---7----5------------------------------------------------------------------------------ 
 
6th-----5---5----3------------------------------------------------------------------------------ 
 
 
If u want the rhythm to this song then I suggest u download it as the rhythm is hard to play but 
once u listen to the song and get the tune in ur head u will soon get the pattern 
 
 
_______________________________________________________ 
Contribuição: Magno Guimarães Rodrigues([email protected]) 
	  

Search Paypal
auto scroll beats size up size down change color hide chords drawings
tab show chords e-chords YouTube Clip e-chords hide all tabs e-chords go to top tab