Backtrack

home > Backtrack

Welcome To The Pound Tab

Backtrack

Difficulty: nolevelnolevel

by marcnagel

tuner correct add songbook print version text version save to e-mail
chordsukulelecavacokeyboardtabbassdrumsharmonicsflute Guitar Pro
chords

Welcome To The Pound

  		
Tuning: D C G F A D 


e|---------------------------------------------------------------------------| 
B|---------------------------------------------------------------------------| 
G|------------------------------------2--------------------------------------| 
D|--------------5\4--------5\4--------2-----------5\4------------------------| 
A|--4~--4~------3\2--4-44--3\2-4-444--0--3--4-44--3\2--4-444-777-------------| 
E|--2~--2~-----------2-22------2-222-----1--2-22-------2-222-555-------------| 
pm                     XX        XXX          XX         XXX 
e|---------------------------------------------------------------------------| 
B|---------------------------------------------------------------------------| 
G|---------------------------------------------------------------------------| 
D|-----------------5\4--------2-----------5\4--------------------------------| 
A|-----------4-44--3\2-4-444--2--3--4-44--3\2--4-444-444-77777-6666-5555-----| 
E|-----------2-22------2-222--0--1--2-22-------2-222-222-55555-4444-3333-----| 
pm             XX        XXX          XX         XXX XXX  XXXX XXXX XXXX 
e|---------------------------------------------------------------------------| 
B|---------------------------------------------------------------------------| 
G|---------------------------------------------------------------------------| 
D|-----------------5\4--------2-----------5\4--------------------------------| 
A|-----------4-44--3\2-4-444--2--3--4-44--3\2--4-444-777---------------------| 
E|-----------2-22------2-222--0--1--2-22-------2-222-555---------------------| 
pm             XX        XXX          XX         XXX 
e|---------------------------------------------------------------------------| 
B|---------------------------------------------------------------------------| 
G|---------------------------------------------------------------------------| 
D|-----------------5\4--------2-----------5\4--------------------------------| 
A|-----------4-44--3\2-4-444--2--3--4-44--3\2--4-444-777---------------------| 
E|-----------2-22------2-222--0--1--2-22-------2-222-555---------------------| 
pm             XX        XXX          XX         XXX 
e|---------------------------------------------------------------------------| 
B|---------------------------------------------------------------------------| 
G|---------------------------------------------------------------------------| 
D|-----------------7\6--------4-----------7\6--------------------------------| 
A|-----------6-66--5\4-6-666--4--5--6-66--5\4--6-666-999---------------------| 
E|-----------4-44------4-444--0--3--4-44-------4-444-777---------------------| 
pm             XX        XXX          XX         XXX 
e|---------------------------------------------------------------------------| 
B|---------------------------------------------------------------------------| 
G|---------------------------------------------------------------------------| 
D|-----------------5\4--------2-----------5\4--------------------------------| 
A|-----------4-44--3\2-4-444--2--3--4-44--3\2--4-444-777---------------------| 
E|-----------2-22------2-222--0--1--2-22-------2-222-555---------------------| 
pm             XX        XXX          XX         XXX 
e|---------------------------------------------------------------------------| 
B|---------------------------------------------------------------------------| 
G|---------------------------------------------------------------------------|  X3 
D|--------------------5\4----------------------------------------------------| 
A|---4~-444444444444--3\2----------------------------------------------------| 
E|---2~-222222222222---------------------------------------------------------| 
pm      xxxxxxxxxxxx 
e|---------------------------------------------------------------------------| 
B|---------------------------------------------------------------------------| 
G|---------------------------------------------------------------------------| X3 
D|-----(pause)----5\4-----------------5\4------------------------------------| 
A|-44444----------3\2---4-444444444---3\2-4-444444444------------------------| 
E|-22222----------------2-222222222-------2-222222222------------------------| 
pm xxxxx                  xxxxxxxxx         xxxxxxxxx 
e|---------------------------------------------------------------------------| 
B|---------------------------------------------------------------------------| 
G|---------------------------------------------------------------------------| 
D|--------5\4-----------5\4--------------------------------------------------| 
A|--------3\2-4~~~------3\2-4-x-(mute note after strum)----------------------| 
E|------------2~~~----------2-x----------------------------------------------| 
Play this until the end 
	  

Search Paypal
auto scroll beats size up size down change color hide chords drawings
tab show chords e-chords YouTube Clip e-chords hide all tabs e-chords go to top tab