Baby Animals

One Word

Baby Animals

tabs Expert expert

save to print version add songbook text version e-mail correct tuner
chordsukulelecavacokeyboardtabbassdrumsharmonicaflute Guitar Pro
close

there isn't a video lesson for this song

chords

One Word

	  		 
  written by DeMarchi / Elson 
  from the album "Baby Animals" (1991) 
 
 
Transcribed by Daniel Schaumann  
 
 
 
Use . 
 
 
 
INTRO: 
 
 
  Em7                             D/E             Esus4 
  1       2       3       4       1       2       3       4 
E|------------3---------------0-------------------------0---------| 
B|------3-----3-------3-----------------3-------------0-----0-----| 
G|----0-------------------------------2-----2p0-----2---------2---| 
D|--2-------------------------------2-----0---------------2-------| 
A|----------------------------------------------------------------| 
E|0-------0-------0-------0-------0---------------0---------------| 
 
 
  Cmaj7                           Dsus2 
  1       2       3       4       1       2       3       4 
E|--------------------------------------0---------------0---------| 
B|----0h3-------------0-------0-------3-----3---------3-----3-----| 
G|--0---------2---------------------2---------2-----2---------2---| 
D|--------------------------------0-------0---------------0-------| 
A|3-------3-------3-------3-----------------------2---------------| 
E|----------------------------------------------------------------| 
 
 
 
REPEAT ABOVE TWO BARS, THEN: 
 
 
  Em9                             D/E             Esus4 
  1       2       3       4       1       2       3       4 
E|------2---0-----------2---0---------------------------0---------| 
B|----0-------0-------0-------0---------3-------------0-----0-----| 
G|--0---------------0---------------0h2-----2p0-----2---------2---| 
D|----------------------------------------------------------------| 
A|----------------------------------------------------------------| 
E|0-------0-------0-------0-------0-------0-------0-------0-------| 
 
 
 
REPEAT ABOVE BAR x3, THEN: 
 
 
  Em9                             D/E             Em      A 
  1       2       3       4       1       2       3       4 
E|------2---0-----------2---0-------------------------------------| 
B|----0-------0-------0-------0---------3---------0---------------| 
G|--0---------------0---------------0h2-----2p0---0-------2-------| 
D|--------------------------------------------------------2-------| 
A|--------------------------------------------------------0-------| 
E|0-------0-------0-------0-------0-------0-------0---------------| 
 
 
  E                               B           A 
  1       2       3       4       1       2       3       4 
E|----------------------------------------------------------------| 
B|----------------------------------------------------------------| 
G|--------------------------------4-----------2-------------------| 
D|2-------------------------------4-----------2-------------------| 
A|2-------------------------------2-----------0-------------------| 
E|0---------------------------------------------------------------| 
 
 
 
REPEAT ABOVE BAR x4 
 
 
 
 
     E       B                A         E 
Oh I wake up feeling the same way every day 
    E           B                       A              E 
And I'm aching, numb with the pain that I can't chase away 
   A                   E              D               F#m 
So I'm wondering who's taking up your sacred precious time 
            E              D            B 
Living from day to day without a single sign 
        B 
Would I lie? Oh no 
 
 
 
CHORUS: 
E 
One word, one letter, one line 
A              D     A   D      A 
And I'd feel a whole lot better 
E 
One look would say it's alright 
A              D     A   D      A 
And I'd feel a whole lot better 
 
 
 
E                   B                 A              E 
My heart breaks the way you turn your back and carry on 
    E                     B               A                   E 
And my head hurts cause I just can't work out why it all went wrong 
   A                     E                D           F#m 
So I'm wondering, oh the more I think the less I understand 
           E             D              B 
Leaving is easy when you know you're in command 
        B 
Would I lie? Oh no 
 
 
 
CHORUS 
 
 
 
B                               E 
Yes I'd feel a whole lot better now 
 
 
 
SOLO:  (not relative to capo) 
  E                               B           A 
  1       2       3       4       1       2       3       4 
E|--------------------------------13--13----11h13p11--------------| 
B|13------------------------------/\----------------------13p11---| 
G|-------------------------------bend--------------------------13-| 
D|--------------------------------up------------------------------| 
A|----------------------------------------------------------------| 
E|----------------------------------------------------------------| 
 
 
  E                               B           A 
  1       2       3       4       1       2       3       4 
E|----11~~--------------------------------------------------------| 
B|13--------------------------------------------------------------| 
G|----------------------------------------------------------------| 
D|----------------------------------------------------6-------6---| 
A|--------------------------------------------------------6-------| 
E|----------------------------------------------------------------| 
 
 
  E                               B           A 
  1       2       3       4       1       2       3       4 
E|4---8-----------------------------------------------------------| 
B|4---9-------------------9-------8---8---7---6-------6-----------| 
G|--------------------8-----------8---8---7---6-------6-----------| 
D|--------------------------------8---8---7---6-------6-------6---| 
A|use-slide-----------------------------------------------6h8-----| 
E|----------------------------------------------------------------| 
 
 
  E                               B           A 
  1       2       3       4       1       2       3       4 
E|--------------------------------11----10----9---8-\-4-----------| 
B|----------------------------------------------------------------| 
G|5----5----5-------------------12----11----10--------------------| 
D|----------------6-------6---------------------------------------| 
A|--------------------6-------------------------------------------| 
E|----------------------------------------------------------------| 
 
 
 
        A           E 
Would I try, try to keep 
              F#m                             B 
Just a little something that means nothing to me 
           A                     E 
Oh, why pretend that I'm in that deep, Lord 
C#m                       B 
I thought you knew me, oh yeah 
 
 
 
 
CHORUS, FINISH WITH: 
 
 
 
E 
One word, one letter, one line 
       A        D    A     D      A     E 
I just want it, it's all I really want, yeah 
E 
One look would say it's alright 
                 A      D  A  D  A 
Say it's alright baby 
D  A  D     A   D       A     D  A  E 
Well, whole lot better, baby, baby, yeah 
 
 
 
 
 
01/06/2004 

		  

Full key step upFull key step up
Half key step upHalf key step up
Half key step downHalf key step down
Full key step downFull key step down
hide glossary

See also:

tabs Augie March - There's No Such Place tabs Jimmy Barnes - Chain Of Fools tabs Happyland - Ordinary tabs You Am I - Please don`t ask me to smile tabs Joss Stone - Fell in love with a boy tabs Hillsong Music Australia - In the Mystery
e-chords

Other versions:

tabs Baby Animals - One Word
auto scroll beats size up size down change color hide chords drawings
tab show chords e-chords YouTube Clip e-chords hide all tabs e-chords go to top tab

share