Babes In Toyland

Oh Yeah

Babes In Toyland

tabs

by  FERNSANTANA

save to print version add songbook text version e-mail correct tuner
chordsukulelecavacokeyboardtabbassdrumsharmonicaflute Guitar Pro
close

there isn't a video lesson for this song

chords

Oh Yeah

	  		(verso) 
E|----------------------------------------------------------| 
B|----------------------------------------------------------| 
G|----------------------------------------------------------| 
D|--------------------------------------------------2-1-0---| 
A|-0-1-2--0-1-2--0-1-2--0-1-2--0-1-2--0-1-2--0-1-2----------| 
E|----------------------------------------------------------| 

(Refrão) 
E|-----------| 
B|-----------| 
G|-2-2-2-4-4-| 
D|-2-2-2-4-4-| 
A|-0-0-0-2-2-| 
E|-----------| 

(ponte) 
                                       (2x) 
E|----------------------------------------|-----------| 
B|----------------------------------------|-----------| 
G|-5b~------------------------------------|-2-2-2-4-4-| 
D|----------------------------------2-1-0-|-2-2-2-4-4-| 
A|-------0-1-2--0-1-2--0-1-2--0-1-2-------|-0-0-0-2-2-| 
E|----------------------------------------|-----------| 

E|----------------------------------| 
B|----------------------------------| 
G|-4-4-4-6-6--6-6-6-4-4-------------| 
D|-4-4-4-6-6--6-6-6-4-4--7-7-7--9-9-| 
A|-2-2-2-4-4--4-4-4-6-6--7-7-7--9-9-| 
E|-----------------------5-5-5--7-7-| 
		  

See also:

tabs Idir - A Vava Inouva tabs Misc Computer Games - Mii Channel Music tabs Prototype - The Way It Ends tabs Misc Television - Marvels The Punisher - Main Theme tabs Misc Computer Games - Assassins Creed Black Flag - Randy Dandy O tabs Andy James - Separation
e-chords

Other versions:

tabs Babes In Toyland - Oh Yeah tabs The Low Budgets - Oh Yeah
auto scroll beats size up size down change color hide chords drawings
tab show chords e-chords YouTube Clip e-chords hide all tabs e-chords go to top tab

share