Azul Violeta

Go Billy Go

Azul Violeta

tabs

by  RAULABEL

save to print version add songbook text version e-mail correct tuner
chordsukulelecavacokeyboardtabbassdrumsharmonicaflute Guitar Pro
close

there isn't a video lesson for this song

chords

Go Billy Go

	  		Intro: 

Riff  
E---------------------------------------------------------- 
B---------------------------------------------------------- 
G---------------------------------------------------------- 
D----------------------------------------------------------   4  veces  
A-------------------------5---7---7---7---6---5--5----- 
E---5---5---8---5---8----------------------------------- 

Bajo 
g--------------------------------------------------------- 
d--------------------------------------------------------- 
a--------------------------------5--3--------------------- 2 veces 
e--5--5---0--3--0---5--5-5----------------------------- 

versos 
con wha  

--------------------------------------------------------- 
--------------------------------------------------------- 
-------------------------------------------------15-(17) 
--------------------------------------------------------- 
--0--0--0----0---0--0-----0--0-0---00-0------------ 
--------------------------------------------------------- 

--------------------------------------------------------- 
-----------------------------------------------------5-- 
-----------------------------------------------7(9)----- 
--------------------------------------------------------- 
--0--0--0----0---0--0-----0--0-0---00-0------------ 
--------------------------------------------------------- 

--------------------------------------------------------- 
--------------------------------------------------------- 
-------------------------------------------------15-(17) 
--------------------------------------------------------- 
--0--0--0----0---0--0-----0--0-0---00-0------------ 
--------------------------------------------------------- 

--------------------------------------------------------- 
--------------------------------------------------------- 
-------------------------------------------------15-(17) 
--------------------------------------------------------- 
--0--0--0----0---0--0-----0--0-0---00-0------------ 
--------------------------------------------------------- 

RIFF 
E---------------------------------------------------------- 
B---------------------------------------------------------- 
G---------------------------------------------------------- 
D----------------------------------------------------------   4  veces  
A-------------------------5---7---7---7---6---5--5----- 
E---5---5---8---5---8----------------------------------- 

------------------------ 
------------------------- 
---5----4---2--------- 
---5----4---2--------- 
---3----2---0-------- 
----------------------- 

a--------------------------------5--3--------------------- 2 veces 
e--5--5---0--3--0---5--5-5----------------------------- 

con wha  
--------------------------------------------------------- 
--------------------------------------------------------- 
-------------------------------------------------15-(17) 
--------------------------------------------------------- 
--0--0--0----0---0--0-----0--0-0---00-0------------ 
--------------------------------------------------------- 

--------------------------------------------------------- 
-----------------------------------------------------5-- 
-----------------------------------------------7(9)----- 
--------------------------------------------------------- 
--0--0--0----0---0--0-----0--0-0---00-0------------ 
--------------------------------------------------------- 

--------------------------------------------------------- 
--------------------------------------------------------- 
-------------------------------------------------15-(17) 
--------------------------------------------------------- 
--0--0--0----0---0--0-----0--0-0---00-0------------ 
--------------------------------------------------------- 

--------------------------------------------------------- 
--------------------------------------------------------- 
-------------------------------------------------15-(17) 
--------------------------------------------------------- 
--0--0--0----0---0--0-----0--0-0---00-0------------ 
--------------------------------------------------------- 


Y ASI EMPEZO A CRECER...... 

--------------------------------------------------------- 
--------------------------------------------------------- 
--------------------------------------------------------- 
--------------------------------------------------------- 
--------7--6--5----------------------7--6--5------------------- 
----5---------------5-------------5------------5--5--5--5--5----- 

E---------------------------------------------------------- 
B---------------------------------------------------------- 
G---------------------------------------------------------- 
D----------------------------------------------------------   4  veces  
A-------------------------5---7---7---7---6---5--5----- 
E---5---5---8---5---8----------------------------------- 

--------------------------------------------------------------------------------- 
---------------------------------------------------------------------------------- 
---5----4---2---5----------5-------4-------2--------------------------------------- 
---5----4---2---5----------5-------4-------2--------------------------------------- 
---3----2---0---3----------3-------2-------0-------------------------------------- 
-------------------------------------------------------------------------------- 

--------------------------------------------------------- 
--------------------------------------------------------- 
--------------------------------------------------------- 
---------------------------------------------------------	PIANO 
---6--5-------------------------------------------------- 
----------8--5--8--5----------------------------------- 

--------------------------------------------------------- 
--------------------------------------------------------- 
--------------------------------------------------------- 
---------------------------------------------------------	 
---6--5-------------------------------------------------- 
----------8--5--8--5----------------------------------- 

------------------------------------------------------ 
--------------------------------------------------------- 
--------------------------------------------------------- 
---------------------------------------------------------	 
---6--5-------------------------------------------------- 
----------8--5--8--5----------------------------------- 


SOLO 
------------------------------------------------------------------------------------- 
-5-----5------5-----5-----5-----5------5-----5-----5-----5----5------5-----5-----5----5----- 
-7(9)--7(9)---7(9)--7(9)--7(9)--7(9)---7(9)--7(9)--7(9)--7(9)-7(9)---7(9)--7(9)--7(9)-7(9)--- 
-------------------------------------------------------------------------------------------- 
-------------------------------------------------------------------------------------------- 
-------------------------------------------------------------------------------------------- 

---------------------------------------------------------------------------------- 
---------------------------------------------------------------------------------- 
--9(7)------------5-----------------------5---------------5--9(7)---5---------- 
--------7-7--5-7---7-5--7-----7--5--7----7--7---5--7----------------7------ 
---------------------------------------------------------------------------------- 
---------------------------------------------------------------------------------- 

------------------------------------------------------------------------- 
--10----------10------------10---------10---------10-------10----- 
--12(14)-----12(14)-- ----12(14)----12(14)---12(14)--12(14)---- 
------------------------------------------------------------------------- 
------------------------------------------------------------------------- 
------------------------------------------------------------------------- 

------------------------------------------------------------------------- 
--10----------10------------10---------10---------10-------10----- 
--12(14)-----12(14)-- ----12(14)----12(14)---12(14)--12(14)---- 
------------------------------------------------------------------------- 
------------------------------------------------------------------------- 
------------------------------------------------------------------------- 

------------------------------------------------------------------------- 
--10----------10------------10---------10---------10-------10----- 
--12(14)-----12(14)-- ----12(14)----12(14)---12(14)--12(14)----(9)7 
--------------------------------------------------------------------7---- 
------------------------------------------------------------------------- 
------------------------------------------------------------------------- 

-15-------15-------15-------15------15-----15------15-------15---- 
-18(20)---18(20)---18(20)---18(20)--18(20)-18(20)- 18(20)---18(20)- 
------------------------------------------------------------------ 
---------------------------------------------------------------------------- 
------------------------------------------------------------------------- 
----------------------------------------------------------------------------- 

--17----------------17---------17-------17---------17-----17------17---------17---------17---- 
--20(22)-- 20(22)--- 20(22)--- 20(22)----20(22)- 20(22)-20(22)-- 20(22)-- 20(22)--------- 
--------------------------------------------------------------------------------------------- 
---------------------------------------------------------------------------------------- 
------------------------------------------------------------------------------------------- 
---------------------------------------------------------------------------------- 

---------------------------------------------------------------------------------- 
5------5------5------5------5-------5------5------5------5------5-----5-----5----5-----5-----5----------- 
7(9)---7(9)---7(9)-- 7(9)-- 7(9)--- 7(9)---7(9)---7(9)---7(9)---7(9)--7(9)- 7(9)-7(9)- 7(9)--7(9)--- 
-------------------------------------------------------------------------------------------- 
--------------------------------------------------------------------------------------------------- 
---------------------------------------------------------------------------------------------------------- 

E---------------------------------------------------------- 
B---------------------------------------------------------- 
G---------------------------------------------------------- 
D----------------------------------------------------------  
A-------------------------5---7---7---7---6---5--5----- 
E---5---5---8---5---8----------------------------------- 


-------7------------------------------------------------ 
-------5------------------------------------------------ 
-------5------------------------------------------------ 
-------6------------------------------------------------ 
-------7------------------------------------------------ 
-------5------------------------------------------------ 





[email protected]
		  

See also:

tabs Molotov - Dance And Dense Denso tabs Interpuesto - De Chica En Chica tabs Los Apson - El Hombre Frío tabs Molotov - Parasito tabs Los Apson - Decepcion tabs Azul Violeta - Volver Jamás
e-chords

Other versions:

tabs Azul Violeta - Go Billy Go
auto scroll beats size up size down change color hide chords drawings
tab show chords e-chords YouTube Clip e-chords hide all tabs e-chords go to top tab

share