Average White Band

When Will You Be Mine

Average White Band

tabs

by  RENEJUNIOR

save to print version add songbook text version e-mail correct tuner
chordsukulelecavacokeyboardtabbassdrumsharmonicaflute Guitar Pro
close

there isn't a video lesson for this song

chords

When Will You Be Mine

	  		Tab by Nick Ostan 

LEGEND: 

p = pull off 
/ = slide 

You need to scratch the strings while they are muted and play to the song so get the rhythm right. 

Intro: 

e|----------------------------------------------------------------| 
B|----------------------------------------------------------------| 
G|----------------------------------------------------------------| 
D|-----5--5-------------------------------------------------------| 
A|-5-7------7/0---------7/0---------------------------------------| 
E|----------------------------------------------------------------| 

Verse: 

e|----------------------------------------------------------------| 
B|----------------------------------5--------7--------------------| 
G|-----------------------7-----------5--------7-------------------| 
D|-----5---6---7--7-8-9----------5----5----7---7------------------| 
A|--5-------------------------------------------------------------| 
E|----------------------------------------------------------------| 

e|----------------------------------------------------------------| 
B|----------------------------------5---------7-------------------| 
G|-----------------------------------5---------7------------------| 
D|-----5---6--5--5p4---------------5----5----7----7---------------| 
A|--5---------------7--5------------------------------------------| 
E|----------------------------------------------------------------| 

Chorus: 

e|----10----10-----12-p-10---------|----15---| 
B|----10----10-----10---10---------|----15---| 
G|---------------------------------|:--------| 
D|---------------------------------|:--------| 
A|---------------------------------|---------| 
E|---------------------------------|---------| 

BREAK: 

e|----15-15------12-12----------| 
B|----15-15------12-12----------| 
G|------------------------------|: 
D|------------------------------|: 
A|------------------------------| 
E|------------------------------| 
		  

See also:

e-chords

Other versions:

tabs Average White Band - When Will You Be Mine
auto scroll beats size up size down change color hide chords drawings
tab show chords e-chords YouTube Clip e-chords hide all tabs e-chords go to top tab

share