Avenged Sevenfold

home > Avenged Sevenfold

Scream Tab

Avenged Sevenfold

Difficulty: ExpertExpert

by Hogenham69

tuner correct add songbook print version text version save to e-mail
chordsukulelecavacokeyboardtabbassdrumsharmonicsflute Guitar Pro
chords

Scream

Year: 2007 - Album: Avenged Sevenfold

Key:  D More
Scream Key AA
Scream Key A#A#
Scream Key BB
Scream Key CC(one step down)
Scream Key C#C#(half step down)
Scream Key DD(original key)
Scream Key D#D#(half step up)
Scream Key EE(one step up)
Scream Key FF
Scream Key F#F#
Scream Key GG
Scream Key G#G#
  		b=bend 
p=palm mute 

Verse 

E--------------------------------------------------- 
B--------------------------------------------------- 
G--------------------335b--------------------------- 
D----------------3355------------------55553333----- 
A-2-2--2-2-113355---------2-2--2-2-3333--------5555- 
D-0-0--0-0----------------0-0--0-0------------------ 
           pppppppppppp            pppppppppppppppp 

E--------------------------------------------------- 
B--------------------------------------------------- 
G--------------------335b--------------------------- 
D----------------3355--------------7777777777777777- 
A-2-2--2-2-113355---------2-2--2-2------------------ 
D-0-0--0-0----------------0-0--0-0------------------ 
           ppppppppppppp           pppppppppppppppp 
                                   bend while strumming 
                                   these 16 palm muted notes 

Chorus 

E--------------------------------------- 
B--------------------------------------- 
G--------------------------------------- 
D--------------------------------------- 
A----2-2----2-2-2222----2-2----2-2-2222- 
D-5b-0-0-5b-0-0-0000-5b-0-0-5b-0-0-0000- 

E--------------------------------------- 
B--------------------------------------- 
G--------------------------------------- 
D--------------------------------------- 
A----2-2----2-2-2222----2-2----2-2-2222- 
D-5b-0-0-5b-0-0-0000-5b-0-0-5b-0-0-0000- 

E--------------------------------------- 
B--------------------------------------- 
G--------------------------------------- 
D--------------------------------------- 
A----2-2----2-2-2222----2-2----2-2-2222- 
D-5b-0-0-5b-0-0-0000-5b-0-0-5b-0-0-0000- 
        
E--------------- 
B--------------- 
G--------------- 
D--------------- 
A-------1-0----- 
D-0-1-3-----3-1- 

then u go back to the verse and theres more to it but this is part of it 
E-mail me at [email protected] for questions or requests 
	  

Search Paypal
auto scroll beats size up size down change color hide chords drawings
tab show chords e-chords YouTube Clip e-chords hide all tabs e-chords go to top tab