Avenged Sevenfold

Heretic

Avenged Sevenfold

tabs Expert expert

by  AMAN_CLAUDINO

save to print version add songbook text version e-mail correct tuner
chordsukulelecavacokeyboardtabbassdrumsharmonicaflute Guitar Pro
close

there isn't a video lesson for this song

chords

Heretic

Key:  D More
Heretic Key AA
Heretic Key A#A#
Heretic Key BB
Heretic Key CC(one step down)
Heretic Key C#C#(half step down)
Heretic Key DD(original key)
Heretic Key D#D#(half step up)
Heretic Key EE(one step up)
Heretic Key FF
Heretic Key F#F#
Heretic Key GG
Heretic Key G#G#
	  		


Tuning: Drop D (D A D G B E) 


Intro 
Guitar 1 (Fade in): 
E||----------------------------------|----------------------------------| 
B||----------------------------------|----------------------------------| 
G||----------------------------------|----------------------------------| 
D||----7-0---7-0---8-0---7-0---5h7~--|----7-0---7-0---5-0---5-0---3-2~--| 
A||--5-----5-----5-----5-----5-------|--3-----3-----3-----3-----3-------| 
D||----------------------------------|----------------------------------| 


E||-------------------------------------------------------------------| 
B||-------------------------------------------------------------------| 
G||-------------------------------------------------------------------| 
D||----5-0---5-0---5-0---3-0---3-0-----5-0---3-0---3-0---2---2h3-*3~--| 
A||--2-----2-----2-----2-----2-----2-1-----1-----0-----0---0----------| 
D||-------------------------------------------------------------------| 



Verse 
Guitar 1/2: 
E||-------------------------------------| 
B||-------------------------------------| 
G||----2---3~-------0---2~--------------| 
D||--0---0--------0---0------2-3-3-0-0--| x4 
A||--------------------------2-3-3-0-0--| 
D||--------------------------2-3-3-0-0--| 
     .   .        .   .      . . . . . 

E||------| 
B||------| 
G||------| 
D||------| 
A||--7\--| 
D||------| 



Pre-Chous 
Guitar 1: 
E||---------------------------------------------------| 
B||--10-11-10----------10-11-13-11----------------11--| 
G||-----------10----10-------------10----------10-----| 
D||--------------12-------------------12----12--------| 
A||--------------------------------------13-----------| 
D||---------------------------------------------------| 


E||--------------------------------------------12-----| 
B||--12----------12-13-15-12-13----------14-------14--| 
G||-----12----12----------------12----12----14--------| 
D||--------12----------------------14-----------------| 
A||---------------------------------------------------| 
D||---------------------------------------------------| 


E||--10----------10-12-13-10-12-10----------------10--| 
B||-----10----10-------------------11----------11-----| 
G||--------10-------------------------10----10--------| 
D||--------------------------------------12-----------| 
A||---------------------------------------------------| 
D||---------------------------------------------------| 


E||--15-----------------------| 
B||-----15----------------15--| 
G||--------16----------16-----| 
D||-----------17----17--------| 
A||--------------17-----------| 
D||---------------------------| 


Guitar 2: 
E||------------------------------------|----------------------| 
B||------------------------------------|----------------------| 
G||------------------------------------|----------------------| 
D||--12~-----8~-----9~------10~---11~--|--12~-----8~-----9-~--| 
A||--12~-----8~-----10~-----10~---11~--|--12~-----8~-----10~--| 
D||--12~-----8~-----9-~-----10~---11~--|--12~-----8~-----9-~--| 



Guitar 1: 
E||-------------------------------| 
B||--17-14------------------------| 
G||--------15-12-15-12------------| 
D||--------------------15-14-12~--| 
A||-------------------------------| 
D||-------------------------------| 


Guitar 2: 
E||--15-12------------------------| 
B||--------14-11-14-11------------| 
G||--------------------14-12-10~--| 
D||-------------------------------| 
A||-------------------------------| 
D||-------------------------------| 


Guitar 3: 
E||------| 
B||------| 
G||------| 
D||--10--| 
A||--10--| 
D||--10--| 



Chorus 
Guitar 1/2: 
E||----------------------------------|----------------------------------| 
B||----------------------------------|----------------------------------| 
G||----------------------------------|----------------------------------| 
D||----7-0---7-0---8-0---7-0---5-7~--|----7-0---7-0---5-0---5-0---3-2~--| 
A||--5-----5-----5-----5-----5-------|--3-----3-----3-----3-----3-------| 
D||----------------------------------|----------------------------------| 


E||------------------------------------------------------------------| 
B||------------------------------------------------------------------| 
G||------------------------------------------------------------------| 
D||----5-0---5-0---5-0---3-0---3-0-----5-0---3-0---3-0---2---2h3-----| x2 
A||--2-----2-----2-----2-----2-----2-1-----1-----0-----0---0-----4~--| 
D||------------------------------------------------------------------| 



Verse 
Guitar 1/2: 
E||-------------------------------------| 
B||-------------------------------------| 
G||----2---3~-------0---2~--------------| 
D||--0---0--------0---0------2-3-3-0-0--| x4 
A||--------------------------2-3-3-0-0--| 
D||--------------------------2-3-3-0-0--| 
     .   .        .   .      . . . . . 

E||------| 
B||------| 
G||------| 
D||------| 
A||--7\--| 
D||------| 



Pre-Chous 
Guitar 1: 
E||---------------------------------------------------| 
B||--10-11-10----------10-11-13-11----------------11--| 
G||-----------10----10-------------10----------10-----| 
D||--------------12-------------------12----12--------| 
A||--------------------------------------13-----------| 
D||---------------------------------------------------| 


E||--------------------------------------------12-----| 
B||--12----------12-13-15-12-13----------14-------14--| 
G||-----12----12----------------12----12----14--------| 
D||--------12----------------------14-----------------| 
A||---------------------------------------------------| 
D||---------------------------------------------------| 


E||--10----------10-12-13-10-12-10----------------10--| 
B||-----10----10-------------------11----------11-----| 
G||--------10-------------------------10----10--------| 
D||--------------------------------------12-----------| 
A||---------------------------------------------------| 
D||---------------------------------------------------| 


E||--15-----------------------| 
B||-----15----------------15--| 
G||--------16----------16-----| 
D||-----------17----17--------| 
A||--------------17-----------| 
D||---------------------------| 


Guitar 2: 
E||------------------------------------|----------------------| 
B||------------------------------------|----------------------| 
G||------------------------------------|----------------------| 
D||--12~-----8~-----9~------10~---11~--|--12~-----8~-----9-~--| 
A||--12~-----8~-----10~-----10~---11~--|--12~-----8~-----10~--| 
D||--12~-----8~-----9-~-----10~---11~--|--12~-----8~-----9-~--| 



Guitar 1: 
E||-------------------------------| 
B||--17-14------------------------| 
G||--------15-12-15-12------------| 
D||--------------------15-14-12~--| 
A||-------------------------------| 
D||-------------------------------| 


Guitar 2: 
E||--15-12------------------------| 
B||--------14-11-14-11------------| 
G||--------------------14-12-10~--| 
D||-------------------------------| 
A||-------------------------------| 
D||-------------------------------| 


Guitar 3: 
E||------| 
B||------| 
G||------| 
D||--10--| 
A||--10--| 
D||--10--| 



Chorus 
Guitar 1/2: 
E||----------------------------------|----------------------------------| 
B||----------------------------------|----------------------------------| 
G||----------------------------------|----------------------------------| 
D||----7-0---7-0---8-0---7-0---5-7~--|----7-0---7-0---5-0---5-0---3-2~--| 
A||--5-----5-----5-----5-----5-------|--3-----3-----3-----3-----3-------| 
D||----------------------------------|----------------------------------| 


E||------------------------------------------------------------------| 
B||------------------------------------------------------------------| 
G||------------------------------------------------------------------| 
D||----5-0---5-0---5-0---3-0---3-0-----5-0---3-0---3-0---2---2h3-----| x2 
A||--2-----2-----2-----2-----2-----2-1-----1-----0-----0---0-----4~--| 
D||------------------------------------------------------------------| 


Guitar 1: 
E||----------------------------------| 
B||------------------5~-----h6p5-----| 
G||--------------6---------------7~--| 
D||------5-8-5-8---8-----------------| 
A||--4-7-----------------------------| 
D||----------------------------------| 
     . . .   . .   . 


Guitar 2: 
E||---------------------------------------| 
B||---------------------8~-----h10p8------| 
G||----------------9-----------------10~--| 
D||------8-11-8-11---11-------------------| 
A||--7-9----------------------------------| 
D||---------------------------------------| 
     . . .    . .    . 



Bridge 
Guitar 1 (Harmony): 
E||---------------------------------------------------| 
B||--------------10----------------------10-----------| 
G||-----------10----10----------------10----10--------| 
D||--------12----------12----------12----------12-----| 
A||--10-12----------------12-10-12----------------12--| 
D||---------------------------------------------------| 


E||-------------------------------------------------| 
B||--------------11---------------------10----------| 
G||--------10-------10-------------9-------9--------| 
D||-----12----12-------12-------11---11------11-----| x4 
A||--13-------------------13-12-----------------12--| 
D||-------------------------------------------------| 


Guitar 2 (Harmony): 
E||-----------------------------------------------|--------------------------------------------| 
B||-----------------------------------------------|--------------------------------------------| 
G||-----------------------------------------------|--------------------------------------------| 
D||-----------------------------------------------|--------------------------------------------|x2 
A||--------------------0~---1~----1-0~---0--------|--------------------0~---1~----1-0~---0-4~--| 
D||--0~----2--3~---3-5---------------------5-3-2--|--0~----2--3~---3-5-------------------------| 



Guitar 1: 
E||-----------------------------------------------------------------------| 
B||--------------------------------------------------8--------------------| 
G||--/7~----/10~--9h10-10~----/10~--9h10-10~----/10----9~----/10--9\7-7~--| 
D||-----------------------------------------------------------------------| 
A||-----------------------------------------------------------------------| 
D||-----------------------------------------------------------------------| 


E||--------------------------------------------------------------------| 
B||-------------------------------------------8------/10--8------------| 
G||--/10~--9h10-10~----/10~--9h10-10~----/10----9~-----------9h10-10~--| 
D||--------------------------------------------------------------------| 
A||--------------------------------------------------------------------| 
D||--------------------------------------------------------------------| 


Guitar 2: 
E||--------------------------------------------------------------------------| 
B||----------/10~--8h10-10~----/10~--8h10-10~----/10--11-8~----/10--8--------| 
G||--/10~-------------------------------------------------------------10-10--| 
D||--------------------------------------------------------------------------| 
A||--------------------------------------------------------------------------| 
D||--------------------------------------------------------------------------| 


E||-------------------------------------------------------------------| 
B||--/10~--8h10-10~----/10~--8h10-10~----/10--11-8~-------------------| 
G||---------------------------------------------------/10--9--6/7-7~--| 
D||-------------------------------------------------------------------| 
A||-------------------------------------------------------------------| 
D||-------------------------------------------------------------------| 



Guitar 1 (Harmony): 
E||---------------------------------------------------| 
B||--------------10----------------------10-----------| 
G||-----------10----10----------------10----10--------| 
D||--------12----------12----------12----------12-----| 
A||--10-12----------------12-10-12----------------12--| 
D||---------------------------------------------------| 


E||-------------------------------------------------| 
B||--------------11---------------------10----------| 
G||--------10-------10-------------9-------9--------| 
D||-----12----12-------12-------11---11------11-----| x4 
A||--13-------------------13-12-----------------12--| 
D||-------------------------------------------------| 


Guitar 1: 
E||------------------------------------------------------------| 
B||-----------------------8-10~---11~---\-/11-10~---10-8-------| 
G||--7~---/7--9--10~---10--------------------------------10-9--| 
D||------------------------------------------------------------| 
A||------------------------------------------------------------| 
D||------------------------------------------------------------| 


E||---------------------------------------------------------------------| 
B||-----------------------8-10~---11~---11-11-11-11-11-10~---10-10/14~--| 
G||--7~---/7--9--10~---10-----------------------------------------------| 
D||---------------------------------------------------------------------| 
A||---------------------------------------------------------------------| 
D||---------------------------------------------------------------------| 


Guitar 2: 
E||------------------------------------------------------------------| 
B||--------------------------11-13~---15~---\-/15-14~---14-11--------| 
G||--10~---/10--12--14~---14----------------------------------14-12--| 
D||------------------------------------------------------------------| 
A||------------------------------------------------------------------| 
D||------------------------------------------------------------------| 


E||----------------------------------------------------------------------------------| 
B||--------------------------11-13~---15~---15-15-15-15-15-14~---14-14/17~---17b18~--| 
G||--10~---/10--12--14~---14---------------------------------------------------------| 
D||----------------------------------------------------------------------------------| 
A||----------------------------------------------------------------------------------| 
D||----------------------------------------------------------------------------------| 


Guitar 3: 
E||-------------------------------------------------------------------| 
B||-------------------------------------------------------------------| 
G||-------------------------------------------------------------------| 
D||----------------------------------3-3-3-3-3-3-3-3-2-2-2-2-7-7-7-7--| 
A||--0-0-0-0-0-0-0-0-3-3-3-3-3-3-3-3-1-1-1-1-1-1-1-1-0-0-0-0-4-4-4-4--| 
D||--0-0-0-0-0-0-0-0-3-3-3-3-3-3-3-3----------------------------------| 
     . . . . . . . . . . . . . . . . . . . . . . . . . . . . . . . . 



Solo 
Guitar 1: 
E||-------------------------------------------------------13-17b18~--18-18-18~r-15-13-12--| 
B||--14b15~--15r14b15~--13-------16b18~--18-18~r--15121517--------------------------------| 
G||-----------------------141214----------------------------------------------------------| 
D||---------------------------------------------------------------------------------------| 
A||---------------------------------------------------------------------------------------| 
D||---------------------------------------------------------------------------------------| 


E||--15---12---------------------------------| 
B||---------14---------------11-14-12-11-----| 
G||-----------15-12--------12------------12--| 
D||----------------14-11-14------------------| 
A||------------------------------------------| 
D||------------------------------------------| 


E||------------------------------------------------------------------------------------------| 
B||-----------------10-13-11-10---------------------10-12-13-10------------------------------| 
G||--12b14r~--brb~--------------12-12b14r~--brb~--10-----------12-14b~--b-b~---r--12---------| 
D||----------------------------------------------------------------------------------15-14~--| 
A||------------------------------------------------------------------------------------------| 
D||------------------------------------------------------------------------------------------| 


E||-----------------------------------17----------------------13--------------------13--| 
B||-----------------------------151718-------------------15-17--15----------------15----| 
G||--------------------------------------14------------14---------14------------14------| 
D||--14h15p14-12-15-14-11-12-15------------15--------15-------------15--------15--------| 
A||------------------------------------------17-12-17-----------------17-12-17----------| 
D||-------------------------------------------------------------------------------------| 


E||--17-13--------------13-17-13--------------13-18~--17h18p17-15-17-18~------------| 
B||-------15----------15--------15----------15----------------------------14/15h18--| 
G||---------15------15------------15------15----------------------------------------| 
D||-----------15--15----------------15--15------------------------------------------| 
A||-------------17--------------------17--------------------------------------------| 
D||---------------------------------------------------------------------------------| 


E||--18--------17--------13--------12------------------------------| 
B||----1815\14---1714\11---1311\10---13p11p10-13p11p10-------------| 
G||---------------------------------------------------10-14p12p10--| 
D||----------------------------------------------------------------| 
A||----------------------------------------------------------------| 
D||----------------------------------------------------------------| 


E||----------------------------------------------------------------------------------------------| 
B||-----------------------------------------------------------------------/15-14~--15-14-15b17~--| 
G||-----------14-----14~----------------17-----17~----15b17~--17-15-17~--------------------------| 
D||--11b12~-------12--------12/14b15~-------15---------------------------------------------------| 
A||----------------------------------------------------------------------------------------------| 
D||----------------------------------------------------------------------------------------------| 



Guitar 2: 
E||--------------------------------------------------------------------| 
B||--------------------------------------------------------------------| 
G||-----------------------------------3~--3~--3-3-3-2~--2-2------------| 
D||--0~--0--------2-3~--3-3-3-3-3-3-3-3~--3~--3-3-3-2~--2-2-7~--7-7-7--| X4 
A||--0~--0--------2-3~--3-3-3-3-3-3-3-1~--1~--1-1-1-0~--0-0-4~--4-4-4--| 
D||--0~--0--0000--2-3~--3-3-3-3-3-3-3----------------------------------| 
            .... 



Dual Solo 
Guitar 1: 
E||----------13-15-17-13-17-13--------------|----------13-17-18-13-18-13--------------| 
B||--------15-----------------15------------|--------15-----------------15------------| 
G||------14---------------------14------14--|------15---------------------15------15--| 
D||----15-------------------------15--15----|----15-------------------------15--15----| 
A||--17-----------------------------17------|--17-----------------------------17------| 
D||-----------------------------------------|-----------------------------------------| 


E||----------15-17-19-15-19-15--------------|----------12-15-13-12-17-12--------------| 
B||--------15-----------------15------------|--------14-----------------14------------| 
G||------15---------------------15------15--|------12---------------------14------14--| 
D||----17-------------------------17--17----|----14-------------------------14--14----| 
A||--17-----------------------------17------|--16-----------------------------16------| 
D||-----------------------------------------|-----------------------------------------| 


Guitar 2: 
E||----------10-12-13-10-13-10--------------|----------10-12-13-10-13-10--------------| 
B||--------10-----------------10------------|--------10-----------------10------------| 
G||------10---------------------10------10--|------10---------------------10------10--| 
D||----12-------------------------12--12----|----12-------------------------12--12----| 
A||--12-----------------------------12------|--13-----------------------------13------| 
D||-----------------------------------------|-----------------------------------------| 


E||----------10-14-15-14-15-10--------------|-----------9-12-10-9-12-9----------------| 
B||--------12-----------------12------------|--------10----------------10-------------| 
G||------12---------------------12------12--|------9----------------------9--------9--| 
D||----12-------------------------12--12----|----11-------------------------11--11----| 
A||--14-----------------------------14------|--12-----------------------------12------| 
D||-----------------------------------------|-----------------------------------------| 


Guitar 3: 
E||-------------------------------------------------------------------------------------------| 
B||-------------------------------------------------------------------------------------------| 
G||-------------------------------------------------------------------------------------------| 
D||--12-12-12-12-12-12-12-12-8-8-8-8-8-8-8-8-9--9--9--9--9--9--9--9--10-10-10-10-11-11-11-11--| 
A||--12-12-12-12-12-12-12-12-8-8-8-8-8-8-8-8-10-10-10-10-10-10-10-10-10-10-10-10-11-11-11-11--| 
D||--12-12-12-12-12-12-12-12-8-8-8-8-8-8-8-8-9--9--9--9--9--9--9--9--10-10-10-10-11-11-11-11--| 



Guitar 1: 
E||----------13-15-17-13-17-13--------------|----------13-17-18-13-18-13--------------| 
B||--------15-----------------15------------|--------15-----------------15------------| 
G||------14---------------------14------14--|------15---------------------15------15--| 
D||----15-------------------------15--15----|----15-------------------------15--15----| 
A||--17-----------------------------17------|--17-----------------------------17------| 
D||-----------------------------------------|-----------------------------------------| 


E||----------15-17-19-15-19-15--------------| 
B||--------15-----------------15------------| 
G||------15---------------------15------15--| 
D||----17-------------------------17--17----| 
A||--17-----------------------------17------| 
D||-----------------------------------------| 


Guitar 2: 
E||----------10-12-13-10-13-10--------------|----------10-12-13-10-13-10--------------| 
B||--------10-----------------10------------|--------10-----------------10------------| 
G||------10---------------------10------10--|------10---------------------10------10--| 
D||----12-------------------------12--12----|----12-------------------------12--12----| 
A||--12-----------------------------12------|--13-----------------------------13------| 
D||-----------------------------------------|-----------------------------------------| 


E||----------10-14-15-14-15-10--------------| 
B||--------12-----------------12------------| 
G||------12---------------------12------12--| 
D||----12-------------------------12--12----| 
A||--14-----------------------------14------| 
D||-----------------------------------------| 


Guitar 3: 
E||----------------------------------------------------------------------| 
B||----------------------------------------------------------------------| 
G||----------------------------------------------------------------------| 
D||--12-12-12-12-12-12-12-12-8-8-8-8-8-8-8-8-9--9--9--9--9--9--9--9--10--| 
A||--12-12-12-12-12-12-12-12-8-8-8-8-8-8-8-8-10-10-10-10-10-10-10-10-10--| 
D||--12-12-12-12-12-12-12-12-8-8-8-8-8-8-8-8-9--9--9--9--9--9--9--9--10--| 


Guitar 1: 
E||--15-12------------------------------------------------| 
B||--------14-------14------------------------------------| 
G||-----------15-12----15-12-------12---------------------| 
D||--------------------------13-11----14-11----------11~--| 
A||-----------------------------------------15-14-13------| 
D||-------------------------------------------------------| 


Guitar 2: 
E||--12-9------------------------------------------| 
B||-------11------11-------------------------------| 
G||----------12-9----12-9------9-------------------| 
D||-----------------------11-8---11-8----------7~--| 
A||-----------------------------------12-11-10-----| 
D||------------------------------------------------| 



Chorus/Outro 
Guitar 1/2: 
E||----------------------------------|----------------------------------| 
B||----------------------------------|----------------------------------| 
G||----------------------------------|----------------------------------| 
D||----7-0---7-0---8-0---7-0---5-7~--|----7-0---7-0---5-0---5-0---3-2~--| 
A||--5-----5-----5-----5-----5-------|--3-----3-----3-----3-----3-------| 
D||----------------------------------|----------------------------------| 


E||------------------------------------------------------------------| 
B||------------------------------------------------------------------| 
G||------------------------------------------------------------------| 
D||----5-0---5-0---5-0---3-0---3-0-----5-0---3-0---3-0---2---2h3-----| x2 
A||--2-----2-----2-----2-----2-----2-1-----1-----0-----0---0-----4~--| 
D||------------------------------------------------------------------| 


Guitar 1: 
E||---------------------------------| 
B||------------------5~-----h6p5----| 
G||--------------6---------------7--| 
D||------5-8-5-8---8----------------| 
A||--4-7----------------------------| 
D||---------------------------------| 
     . . .   . .   . 


Guitar 2: 
E||--------------------------------------| 
B||---------------------8~-----h10p8-----| 
G||----------------9-----------------10--| 
D||------8-11-8-11---11------------------| 
A||--7-9---------------------------------| 
D||--------------------------------------| 
     . . .    . .    . 


Guitar 3: 
E||------| 
B||------| 
G||------| 
D||--0~--| 
A||--0~--| 
D||--0~--| 




Tablature Legend 
---------------- 
 h   - hammer-on 
 p   - pull-off 
 b   - bend 
 r   - release bend 
 *   - pinch harmonic 
 '   - natural harmonic 
 x   - mute note 
 .   - palm mute 
 /   - slide down 
 \   - slide up 
		  

Full key step upFull key step up
Half key step upHalf key step up
Half key step downHalf key step down
Full key step downFull key step down
hide glossary

See also:

tabs Marilyn Manson - Coma White tabs Janes Addiction - Jane Says tabs Avenged Sevenfold - MIA tabs Pantera - Cemetery Gates tabs Slipknot - Vermilion Pt.2 tabs Pantera - Domination
e-chords

Other versions:

tabs Avenged Sevenfold - Heretic tabs Power Trip - Heretics Fork
auto scroll beats size up size down change color hide chords drawings
tab show chords e-chords YouTube Clip e-chords hide all tabs e-chords go to top tab

share