Avenged Sevenfold

Afterlife

Avenged Sevenfold

tabs Expert expert

by  ALESBARRAS

save to print version add songbook text version e-mail correct tuner
chordsukulelecavacokeyboardtabbassdrumsharmonicaflute Guitar Pro
close

there isn't a video lesson for this song

chords

Afterlife

	  		Intro :  

E|---------------------------------|  
B|-5-6/13-6-5-6-5-6/15-6-5-6/17-15-17b17-18b-|  
G|---------------------------------|  
D|---------------------------------|  
A|---------------------------------|  
E|----------------------------- 
E|12-13-12-10--12-13-12-10--12-13-12-10-------|   
B|-----------10-----------10-------|  
G|---------------------------------|  
D|---------------------------------|  
A|---------------------------------|  
E|---------------------------------|  


E|-12-13-12-10--12-13-12-10--12-13-12-10---|   
B|------------11-----------11--------------|  
G|---------------------------------|  
D|---------------------------------|  
A|---------------------------------|  
E|---------------------------------|  


E|-17-18-17-15--17-18-17-15--17-18-17-15-17-18-17-15--17-18-17-15--15b|   
B|------------15-----------15-----------------------16-----------16--|  
G|---------------------------------|  
D|---------------------------------|  
A|---------------------------------|  
E|---------------------------------|  


pré-verso :  

E|----------------------------------|   
B|----------------------------------|  
G|----------------------------------|  
D|----------------------------------|  
A|-5h8p5-5h8p5p0-0-0-0-5h8p5-5h8p5p0|  
E|---------------0-0-0--------------|  
                |pm...|  
entra o baixo e depois a guitarra entra denovo nessa proxima parte aqui :  

verso :   

E|-----------------------------------------------|  
B|-----------------------------------------------|  
G|-----------------------------------------------|  
D|-----------------------------------------3-5-6-|  
A|-5h8p5-5h8p5p0-0-0-0-5h8p5-5h8p5p0-0-0-0-3-5-6-|  
E|---------------0-0-0---------------0-0-0-3-5-6-|  
                |pm...|             |pm...|  


E|-----------------------------------------------|  
B|-----------------------------------------------|  
G|-----------------------------------------------|  
D|-----------------------------------------3-5-6-|  
A|-5h8p5-5h8p5p0-0-0-0-5h8p5-5h8p5p0-0-0-0-3-5-6-|  
E|---------------0-0-0---------------0-0-0-3-5-6-|  
                |pm...|             |pm...|  


E|-----------------------------------------------|  
B|-----------------------------------------------|  
G|-----------------------------------------------|  
D|-----------------------------------------3-5-6-|  
A|-5h8p5-5h8p5p0-0-0-0-5h8p5-5h8p5p0-0-0-0-3-5-6-|  
E|---------------0-0-0---------------0-0-0-3-5-6-|  
                |pm...|             |pm...|  




E|-----------------------------------------------------|  
B|-----------------------------------------------------|  
G|-----------------------------------------------------|  
D|-----------------------------------------3-5-6-6-5-3-|  
A|-5h8p5-5h8p5p0-0-0-0-5h8p5-5h8p5p0-0-0-0-3-5-6-6-5-3-|  
E|---------------0-0-0---------------0-0-0-3-5-6-6-5-3-|  
                |pm...|             |pm...|  



E|----------------------------------|   
B|----------------------------------|  
G|-5-5-5-5-5-5-5-5/9-10-12----------|  
D|-5-5-5-5-5-5-5-5---x--x-----------|  
A|-3-3-3-3-3-3-3-3/7-8--10----------|  
E|----------------------------------|  

E|----------------------------------|   
B|----------------------------------|  
G|-5-5-5-5-5-5-5-5/12-14-15---------|  
D|-5-5-5-5-5-5-5-5----x--x----------|  
A|-3-3-3-3-3-3-3-3/10-12-13---------|  
E|----------------------------------|  


E|----------------------------------|   
B|----------------------------------|  
G|----------------------------------|  
D|----------------------------------|  
A|----------------------------------|  
E|-0-0-8-0-7-0-0-10-0-0-8-0-7-0-8---|  


E|--------------------------------------------------------|   
B|--------------------------------------------------------|  
G|-5-5-5-5-5-5-5-5-5-3-3-3-3-3-3-3-3-5-5-5-5-5-6-6-6-6-6--|  
D|-5-5-5-5-5-5-5-5-5-3-3-3-3-3-3-3-3-5-5-5-5-5-7-7-7-7-7--|  
A|-3-3-3-3-3-3-3-3-3-1-1-1-1-1-1-1-1-3-3-3-3-3-4-4-4-4-4--|  
E|--------------------------------------------------------|  


pré-Refrão :  

e|------------------------------------------------------------------------------|  
B|------------------------------------------------------------------------------|  
G|------------------------------------------------------------------------------|  (2x)  
D|--0----------0-------3------3-----3--8---------8-----8--10-------10-------10--|  
A|--0----------0-------3------3-----3--8---------8-----8--10-------10-------10--|  
E|--0--0-0-0-0-0--0-0--3--3-3-3-3-3-3--8-8-8-8-8-8-8-8-8--10-10-10-10-10-10-10--|  
       .......    ...     ...   ...      .......   ...       .....     .....    


Refrão :  

E|------------------------------------------|   
B|------------------------------------------|  
G|-----------5\--------7\-------------------|  
D|-3\--------5-8 vezes-7-8 vezes--8\--------|  
A|-3-8 vezes-3/--------5/---------8-8 vezes-|  
E|-3/-----------------------------8/--------|  

repete desde o verso e entra aqui :   



PM...........................................................  
E|-----------------------------------------------------------| 2 vezes   
B|-----------------------------------------------------------|  
G|-----------------------------------------------------------|  
D|-----------------------------------------------------------|  
A|0-0-0-0-0-0-0-8-8-8-8-8-5-5-5-5-5-8-8-8-8-7-7-7-7----------|  
E|0-0-0-0-0-0-0-8-8-8-8-8-5-5-5-5-5-8-8-8-8-7-7-7-7----------|  


E|--------------------------------------------------------------| 4 vezes   
B|--------------------------------------------------------------|  
G|--------------------------------------------------------------|  
D|-0-0--0-0-0-0--8-8--8-8-8-8--5-5--5-5-5-5-8-8-8-8-7-7-7-7-----|  
A|-0-0--0-0-0-0--8-8--8-8-8-8--5-5--5-5-5-5-8-8-8-8-7-7-7-7-----|  
E|-0-0--0-0-0-0--8-8--8-8-8-8--5-5--5-5-5-5-8-8-8-8-7-7-7-7-----|  

solo > esse solo eh bem dificil, boa sorte (vou botar o tempo pra ajudar voces) :  

e|----------------------------------------------------------|  
b|----------5h6p5---5-6-8//15b-----------5h6p5---5-6-8//17b-|  
g|--------5-------7--------------------5-------7------------|  
d|------5----------------------------5----------------------|  
a|--5-7--------------------------5-7------------------------|  
d|----------------------------------------------------------|  
    x x                          x x  

e|------------------------------|  
b|----------5h6p5---5-6-8//20b--|  
g|--------5-------7-------------|  
d|------5-----------------------|  
a|--5-7-------------------------|  
d|------------------------------|  
    x x  

(4:04)  
e|--------------------------------------------------------------|  
b|--18p17p15-17p15p14-------------------------------------------|  
g|--------------------17p15p14h15h17p15p14--14h15p14------------|  
d|----------------------------------------17--------17p15p14----|  
a|----------------------------------------------------------17--|  
d|--------------------------------------------------------------|  

(4:06)  
e|-----------------------------------------------------17b-----17b-18b-----|  
b|--8-10//17----10p8h10-8-10//18b----10-8-10//20b---18-----20--------------|  
g|-------------------------------------------------------------------------|  
d|-------------------------------------------------------------------------|  
a|-------------------------------------------------------------------------|  
d|-------------------------------------------------------------------------|  

(4:15)  
e|--18-17-17-18-18-17-17-18-17-17-18-18-17-17--------------------|  
b|------------------------------------------------15h17h18-22b---|  
g|----------------------------------------------17---------------|  
d|--------------------------------------------18-----------------|  
a|---------------------------------------------------------------|  
d|---------------------------------------------------------------|  

(4:17)  
e|---------------------------------------------------------------|  
b|--18-17-17-18-18-17-17-18-17-17-18-18-17-17-----14h15h17-20b---|  
g|----------------------------------------------15---------------|  
d|--------------------------------------------17-----------------|  
a|---------------------------------------------------------------|  
d|---------------------------------------------------------------|  

(4:19)  
e|--17-16-16-17-17-16-16-17-16-16-17-17-16-17--------------18b---|  
b|------------------------------------------------15h17h18-------|  
g|----------------------------------------------17---------------|  
d|--------------------------------------------18-----------------|  
a|---------------------------------------------------------------|  
d|---------------------------------------------------------------|  

(4:21)  
e|--18-17-17-18-18-17-17--------------22-17-------17-------------|  
b|---------------------------15h17h18-----------18---------------|  
g|-------------------------17-----------------19-----------------|  
d|-----------------------18-----------------19-------------------|  
a|---------------------------------------------------------------|  
d|---------------------------------------------------------------|  

(4:24)                                     I------------triplits-----------------|I  
e|--10-10h13-10-10-10h15-10-10-10h13-10-10-15-10-10-13-10-10-15-10-10-13-10-10---|  
b|-------------------------------------------------------------------------------|  
g|-------------------------------------------------------------------------------|  
d|-------------------------------------------------------------------------------|  
a|-------------------------------------------------------------------------------|  
d|-------------------------------------------------------------------------------|  

                                           I------------triplets-----------------|I  
e|--10-10h13-10-10-10h15-10-10-10h13-10-10-15-10-10-13-10-10-15-10-10-13-10-10---|  
b|-------------------------------------------------------------------------------|  
g|-------------------------------------------------------------------------------|  
d|-------------------------------------------------------------------------------|  
a|-------------------------------------------------------------------------------|  
d|-------------------------------------------------------------------------------|  

(4:28)                                     I------------triplets-----------------|I  
e|--13-13h15-13-13-13h17-13-13-13h15-13-13-17-13-13-15-13-13-17-13-13-15-13-13---|  
b|-------------------------------------------------------------------------------|  
g|-------------------------------------------------------------------------------|  
d|-------------------------------------------------------------------------------|  
a|-------------------------------------------------------------------------------|  
d|-------------------------------------------------------------------------------|  

                                           I------------triplets-----------------|I  
e|--13-13h15-13-13-13h17-13-13-13h15-13-13-17-13-13-15-13-13-17-13-13-15-13-13---|  
b|-------------------------------------------------------------------------------|  
g|-------------------------------------------------------------------------------|  
d|-------------------------------------------------------------------------------|  
a|-------------------------------------------------------------------------------|  
d|-------------------------------------------------------------------------------|  

(4:30)  
e|--17p15p13----15p13--------------------------------|  
b|----------17-------17p15--17p15p13-----------------|  
g|----------------------------------16--17p16p14-----|  
d|-----------------------------------------------17--|  
a|---------------------------------------------------|  
d|---------------------------------------------------|  

(4:33)    (whammy)   
e|----------5\---------------------------------------|  
b|--15bbb---5/harmonics------------------------------|  
g|---------------------------------------------------|  
d|---------------------------------------------------|  
a|---------------------------------------------------|  
d|---------------------------------------------------|  

depois do solo >  

e|----------------------------------------------|  
g|----------------------------------------------|  
b|--7-7-7-7-7------------5-5-5-5-5--------------|(2x)  
d|--7-7-7-7-7-0---0-0-0--5-5-5-5-5-2---2-2-2----|  
a|--5-5-5-5-5-0---0-0-0--3-3-3-3-3-2---2-2-2----|  
d|------------0---0-0-0------------2---2-2-2----|  
                  x x x                x x x  

e|-------------------------------------------------------------|  
g|-------------------------------------------------------------|  
b|--7-7-7-7-7---------------------5-5-5-5-5--------------------|(2x)  
d|--7-7-7-7-7--0-0-0-0-0--0-0-0---5-5-5-5-5--2-2-2-2-2--2-2-2--|  
a|--5-5-5-5-5--0-0-0-0-0--0-0-0---3-3-3-3-3--2-2-2-2-2--2-2-2--|  
d|-------------0-0-0-0-0--0-0-0--------------2-2-2-2-2--2-2-2--|  
               x x x x x  x x x              x x x x x  x x x  

(4:50)  
e|---------------------------------------------------------------------------|  
b|---------------------------------------------------------------------------|  
g|---------------------------------------------------------------------------|  
d|--3-5-7-8-5-----------------------------3--2h3p2h3h2------3-2----2h3s5--2--|  
a|--3-5-7-8-5---------------------------3-----------------3-------3----------|  
d|--3-5-5-6-5----------------------------------------------------------------|  

		  

See also:

tabs Twisted Syster - Were not gonna take tabs Slipknot - Duality tabs Slipknot - Duality(ver 2) tabs Alice Cooper - No More Mr. Nice Guy tabs Marilyn Manson - Sweet Dreams (complete) tabs Slipknot - Vermilion (Part 2)
e-chords

Other versions:

tabs Gamma Ray - Afterlife tabs Avenged Sevenfold - Afterlife tabs Switchfoot - Afterlife tabs Smile Empty Soul - Afterlife tabs Dream Theater - Afterlife
auto scroll beats size up size down change color hide chords drawings
tab show chords e-chords YouTube Clip e-chords hide all tabs e-chords go to top tab

share