Avatar

Regret

Avatar

tabs nolevel nolevel

by  BOMBAXXX

save to print version add songbook text version e-mail correct tuner
chordsukulelecavacokeyboardtabbassdrumsharmonicaflute Guitar Pro
close

there isn't a video lesson for this song

chords

Regret

Key:  F# More
Regret Key C#C#
Regret Key DD
Regret Key D#D#
Regret Key EE(one step down)
Regret Key FF(half step down)
Regret Key F#F#(original key)
Regret Key GG(half step up)
Regret Key G#G#(one step up)
Regret Key AA
Regret Key A#A#
Regret Key BB
Regret Key CC
	  		
Guitar 1  (Clean) 

b |--6---------------5-------------|------6---------3-----3---2------| 
F#|----------------------------8---|4---4-----------4-4-----2--------| 
D |7---------------7-------------7-|--5-------------5---5-------3--2-| 
A |--------------------------------|---------------------------------| 
E |--------------------------------|---------------------------------| 
B |--------------------------------|---------------------------------| 

b |--10--8---6-------8\6\5---------|------6---------3-------2--------| 
F#|----------------------------8---|4---4-----------4-------2--------| 
D |0-------------0---------------7-|--5-------------5-------3--------| 
A |--------------------------------|---------------------------------| 
E |--------------------------------|---------------------------------| 
B |--------------------------------|---------------------------------| 


0:23-0:45 

Guitar 1 (Clean) 

b |-------------------------------|---------------------------------| 
F#|-------------------------------|---------------------------------| 
D |7-------------5/7-------------5/8------------10\8--------7---5---| 
A |-------------------------------|---------------------------------| 
E |-------------------------------|---------------------------------| 
B |-------------------------------|---------------------------------| 

b |-------------------------------|---------------------------------| 
F#|-------------------------------|---------------------------------| 
D |7-------------5/7-------------5/8------------10\8--------7---5---| 
A |-------------------------------|---------------------------------| 
E |-------------------------------|---------------------------------| 
B |-------------------------------|---------------------------------| 


0:34-0:45 

Guitar 2 (Clean) 

b |----------------------------------|--------------------------------------| 
F#|----------------------------------|--------------------------------------| 
D |----------------------------------|-------------7---------7-8------7---7-| 
A |8-7-8-7-8-10-8-7-8-7-8-7-8-10-8-7-|10-8-10-8-10---10-8-10-----10-8---7---| 
E |----------------------------------|--------------------------------------| 
B |----------------------------------|--------------------------------------| 


0:45-1:10 

Guitar 1 (Clean) 

b |--6---------------5-------------|------6---------3-----3---2------| 
F#|----------------------------8---|4---4-----------4-4-----2--------| 
D |7---------------7-------------7-|--5-------------5---5-------3--2-| 
A |--------------------------------|---------------------------------| 
E |--------------------------------|---------------------------------| 
B |--------------------------------|---------------------------------| 

b |--10--8---6-------8\6\5---------|------6---------3-------2--------| 
F#|----------------------------8---|4---4-----------4-------2--------| 
D |0-------------0---------------7-|--5-------------5-------3--------| 
A |--------------------------------|---------------------------------| 
E |--------------------------------|---------------------------------| 
B |--------------------------------|---------------------------------| 


b |3-------------------------------| 
F#|3-------------------------------| 
D |0-------------------------------| 
A |--------------------------------| 
E |--------------------------------| 
B |--------------------------------| 


0:45-1:10 

Guitar 2 (Clean) 

b |----------------------------------|--------------------------------------| 
F#|----------------------------------|--------------------------------------| 
D |----------------------------------|-------------7---------7-8------7---7-| 
A |8-7-8-7-8-10-8-7-8-7-8-7-8-10-8-7-|10-8-10-8-10---10-8-10-----10-8---7---| 
E |----------------------------------|--------------------------------------| 
B |----------------------------------|--------------------------------------| 

b |----------------------------------|--------------------------------------| 
F#|----------------------------------|--------------------------------------| 
D |----------------------------------|-------------7---------7-8------7---7-| 
A |8-7-8-7-8-10-8-7-8-7-8-7-8-10-8-7-|10-8-10-8-10---10-8-10-----10-8---7---| 
E |----------------------------------|--------------------------------------| 
B |----------------------------------|--------------------------------------| 

b |--------------------------------| 
F#|--------------------------------| 
D |--------------------------------| 
A |8~~~~~~~~~~~~~~~~~~~~~~~~~~~~~~~| 
E |--------------------------------| 
B |--------------------------------| 


1:11-1:32 

Guitar 1 (Distortion ON) 

b |--------------------------------|---------------------------------| 
F |--------------------------------|---------------------------------| 
D |--------------------------------|---------------------------------| 
A |--------------------------------|---------------------------------| 
E |------------1/5-------------1/5-|3-3-3-3-3-1/6-5-6-6-6-5-5-8-8-10-| 
B |3-3-3-3-3-1-----3-3-3-3-3-1-----|---------------------------------| 

b |--------------------------------|---------------------------------| 
F |--------------------------------|---------------------------------| 
D |--------------------------------|---------------------------------| 
A |--------------------------------|---------------------------------| 
E |------------1/5-------------1/5-|3-3-3-3-3-1/6-5-6-6-6-5-5-8-8-10-| 
B |3-3-3-3-3-1-----3-3-3-3-3-1-----|---------------------------------| 


1:11-1:32 

Guitar 2 (Distortion ON) 

b |------------------------------------------------|-------------------------------------------------| 
F#|11-10-11-10-11-13-11-10-11-10-11-10-11-13-11-10-|13-11-13-11-13-15-13-11-13-15-16-13-11--16-10-16-| 
D |------------------------------------------------|-------------------------------------------------| 
A |8--7--8--7--8--10-8--7--8--7--8--7--8--10-8--7--|10-8--10-8--10-12-10-8--10-12-13-10-8--13--7--13-| 
E |------------------------------------------------|-------------------------------------------------| 
B |------------------------------------------------|-------------------------------------------------| 

b |------------------------------------------------|-------------------------------------------------| 
F#|11-10-11-10-11-13-11-10-11-10-11-10-11-13-11-10-|13-11-13-11-13-15-13-11-13-15-16-13-11--16-10-16-| 
D |------------------------------------------------|-------------------------------------------------| 
A |8--7--8--7--8--10-8--7--8--7--8--7--8--10-8--7--|10-8--10-8--10-12-10-8--10-12-13-10-8--13--7--13-| 
E |------------------------------------------------|-------------------------------------------------| 
B |------------------------------------------------|-------------------------------------------------| 


1:33-2:02 

Guitar 1 (Rhythm) (Distortion ON) 

PM     - -           - - -           - - -           - - -  
b |--------------------------------|---------------------------------| 
F |--------------------------------|---------------------------------| 
D |--------------------------------|---------------------------------| 
A |--------------------------------|---------------------------------| 
E |5---5-5-----1-----5-5-5-----1/6~|-5-5-5-----1-----5-5-5-3-0-5-----| 
B |3---3-3-1-3--/6~--3-3-3-1-3-----|-3-3-3-1-3--/5~--3-3-3-1---3-----| 
                 ^                               ^ 
(For the slides above, I use my ring finger to slide on the 6th string to the frets listed) 

        
PM     - -           - - -           - - -           - - -  
b |--------------------------------|-------------------------------|----------------------------------| 
F |--------------------------------|-------------------------------|----------------------------------| 
D |--------------------------------|-------------------------------|----------------------------------| 
A |--------------------------------|-------------------------------|----------------------------------| 
E |5---5-5-----1-----5-5-5-----1/6~|-5-5-5-----1-----5-5-5-3---0---|5---------------------------------| 
B |3---3-3-1-3--/6~--3-3-3-1-3-----|-3-3-3-1-3--/5~--3-3-3-1---1---|3---------------------------------| 


*********************** 

|  /   slideup  
|  \   slidedown 
|  ~   vibrato  

*********************** 
		  

See also:

tabs Doa - Sexyest Girl tabs Deep Purple - Smoke on the water (intro) tabs Deep Purple - Highway Star tabs Albert Hammond Jr - Holiday tabs Deep Purple - Deep Purple - Smoke On The Water tabs Deep Purple - Ted The Mechanic
e-chords

Other versions:

tabs Carus - Regret tabs John Frusciante - Regret tabs New Order - Regret tabs Drowning Pool - Regret tabs Avatar - Regret tabs Living with Lions - Regret Song
auto scroll beats size up size down change color hide chords drawings
tab show chords e-chords YouTube Clip e-chords hide all tabs e-chords go to top tab

share with facebook