Aurthohin

Nikrishto

Aurthohin

tabs

by  ABELAMIN

save to print version add songbook text version e-mail correct tuner
chordsukulelecavacokeyboardtabbassdrumsharmonicaflute Guitar Pro
close

there isn't a video lesson for this song

chords

Nikrishto

	  		
 Drop D tuning 

 C#-G#-C#-F#-A#-D# 

 Intro- 
 D-0-1-0-1-0-----0-0--1-0-1-0--4----------- 
 A-0-1-0-1-0-----0-0--1-0-1-0--4----------- 
 D------------------------------------------------- 
 G------------------------------------------------- 
 B------------------------------------------------- 
 E-------------------------------------------------((X2)) 

 D0-1--0-1-0-1-------------------- 
 A0-1--0-1-0-1--------------------((X8)) 
 D-------------------------------- 
 G-------------------------------- 
 B-------------------------------- 
 E-------------------------------- 

 D0-0-1p0--0-1-0-1--0-0-1p0-0-1-0-1--0-0-1p0--0-1-0-1--0-0-1p0-0-4- 
 A----1p0--0-1-0-1------1p0-0-1-0-1------1p0--0-1-0-1------1p0--0-4 
 D----------------------------------------------------------------- 
 G------------------------------------------------------------------ 
 B------------------------------------------------------------------- 
 E--------------------------------------------------------------------((X2)) 

 D12p0-11p0-10p0-9p0-8-7-8p0-7p0-6p0-5p0-4p0-3p0-2-0 
 A------------------------------------------------- 
 D------------------------------------------------- 
 G------------------------------------------------- 
 B------------------------------------------------- 
 E------------------------------------------------- 

 D0-0---0-0-0-0---0-0---0-0-0-0----- 
 A0-0---0-0-0-0---0-0---0-0-0-0----- 
 D---------------------------------- 
 G---------------------------------- 
 B---------------------------------- 
 E----------------------------------((X2)) 

 VERSE- 
 D0-0---0-0-0-0---0-0---0-0-0-0----- 
 A0-0---0-0-0-0---0-0---0-0-0-0----- 
 D---------------------------------- 
 G---------------------------------- 
 B---------------------------------- 
 E----------------------------------((X2)) 

 D-0-0-1p0------- 
 A-----1p0------- 
 D--------------- 
 G--------------- 
 B--------------- 
 E---------------((X16)) 

 Chorus- 
 D-0------------------5---3-----0------------3---5- 
 A-0-----1-------5----5---3-----0------------3---5- 
 D-------3-------7-------------------1----5-------- 
 G-----------------------------------3----7-------- 
 B------------------------------------------------- 
 E------------------------------------------------ 

 Solo is in process........... 
		  

See also:

tabs Son Of Mordor - Yvannah tabs Sebastian Bach - Love Is A Bitchslap tabs Issues - Hooligans tabs Son Of Mordor - Unknow tabs Son Of Mordor - Collapse Of The Walls tabs Aurthohin - Nikrishto
e-chords

Other versions:

tabs Aurthohin - Nikrishto
auto scroll beats size up size down change color hide chords drawings
tab show chords e-chords YouTube Clip e-chords hide all tabs e-chords go to top tab

share