Atritus

Tô Certo

Atritus

tabs

by  KOULTERR

save to print version add songbook text version e-mail correct tuner
chordsukulelecavacokeyboardtabbassdrumsharmonicaflute Guitar Pro
close

there isn't a video lesson for this song

chords

Tô Certo

	  		TOQUE OS MESMOS ACORDES ABAFADOS NA INTRODUÇÃO 
 
 
E-------------------------------------------------------------------------------------- 
B-------------------------------------------------------------------------------------- 
G-------------------------------------------------------------------------------------- 
D------------5-5------------------------------------------------------------------ 
A-3-3-3-3-3--3-3---5-5--6-6-6-6-6--6-6-6-6-6----------------------------- 
E-1-1-1-1-1--------3-3--4-4-4-4-4--4-4-4-4-4----------------------------- 
 
Refrão(4 VEZES) 
 
E-------------------------------------------------------------------------------------- 
B-------------------------------------------------------------------------------------- 
G-------------------------------------------------------------------------------------- 
D-------------------------------------------------------------------------------------- 
A-4-4-4-4-4--5-5-5-5-5---------------------------------------------------------- 
E-4-4-4-4-4--3-3-3-3-3---------------------------------------------------------- 

		  

See also:

tabs Nx Zero - Uma Chance tabs Tequila Baby - Melhor do Que Você Pensa tabs Tequila Baby - 2X2 tabs Street Bulldogs - Adolf tabs CPM 22 - Coragem tabs Tequila Baby - Menina Linda
e-chords

Other versions:

tabs Atritus - Tô Certo
auto scroll beats size up size down change color hide chords drawings
tab show chords e-chords YouTube Clip e-chords hide all tabs e-chords go to top tab

share