Ashlee Simpson

Shadow ( live )

Ashlee Simpson

tabs

by  LAISAUM

save to print version add songbook text version e-mail correct tuner
chordsukulelecavacokeyboardtabbassdrumsharmonicaflute Guitar Pro
close

there isn't a video lesson for this song

chords

Shadow ( live )

	  		  
Intro:  
  
  
E-------0----0------------------------------|  
B--------4----4-----------------------------|  
G----4----4----4--4---4---------------------|  
D-----5----5----5---5---5/1h0---------------|  
A--5----------------------------------------|  
E-3-----------------------------------------|   x2  
  
Verse: 
  
E-------------------------------------------------------------------------|  
B--------------------------------------1--1---1---------------------------|  
G----4--4--0-------4--4---4h2-----------0---0---0h2----2---2---2-2h4p0----|  
D-----5--5-------3--3---3----4h5----2--------------------0---0------------|  
A--5-----------5------------------3------------------0--------------------|  
E-3----------3--------------------------------------3---------------------|    
      
  
Pre-Chorus  
  
E--x-x-xp-x-x-xp-x-x-xp-x-x-x-----|  
B--1-1-1p-3-3-3p-1-1-1p-3-3-3-----|  
G--0-0-0p-2-2-2p-0-0-0p-2-2-2-----|      Listen for how many times to     
D--2-2-2p-0-0-0p-2-2-2p-0-0-0-----|      strum the it.  
A--3-3-3p-x-x-xp-3-3-3p-x-x-x-----|  
E--0-0-0p-x-x-xp-0-0-0p-x-x-x-----|  
  
Chorus  
E-3-3-3-3h-1-1-1-1h-x-x-x-xh-1-1-1-1-|  
B-3-3-3-3h-1-1-1-1h-1-1-1-1h-1-1-1-1-|  
G-4-4-4-4h-2-2-2-2h-0-0-0-0h-2-2-2-2-|  
D-5-5-5-5h-3-3-3-3h-2-2-2-2h-3-3-3-3-|  
A-5-5-5-5h-3-3-3-3h-3-3-3-3h-3-3-3-3-|  
E-3-3-3-3h-1-1-1-1h-0-0-0-0h-1-1-1-1-|     x2  
  
  
Verse   
  
Pre-Chorus  
  
Chorus  
  
Bridge  
  
E-0-0-0-0p-1-1-1-1p-0-0-0-0p-1-1-1-1p-x-x-x-xp-1-1-1-1p-x-x-x-xp-1-1-1-1|  
B-1-1-1-1p-1-1-1-1p-1-1-1-1p-1-1-1-1p-1-1-1-1p-1-1-1-1p-1-1-1-1p-1-1-1-1|  
G-2-2-2-2p-2-2-2-2p-2-2-2-2p-2-2-2-2p-0-0-0-0p-2-2-2-2p-0-0-0-0p-2-2-2-2|  
D-2-2-2-2p-3-3-3-3p-2-2-2-2p-3-3-3-3p-2-2-2-2p-3-3-3-3p-2-2-2-2p-3-3-3-3|  
A-0-0-0-0p-3-3-3-3p-0-0-0-0p-3-3-3-3p-3-3-3-3p-3-3-3-3p-3-3-3-3p-3-3-3-3|  
E-0-0-0-0p-1-1-1-1p-0-0-0-0p-1-1-1-1p-0-0-0-0p-1-1-1-1p-0-0-0-0p-1-1-1-1|  
  
End on this   
  
E--3-----|  
B--3-----|  
G--0-----|   let it ring out  
D--0-----|  
A--2-----|  
E--3-----|  
  
  
Chorus x2  
Play it clean one time then the second time with distorion.  
  
Outro  
  
  
E------------------------------------------------|  
B----------p20h22h24p23h21-----------------------|  
G-15h17p18-----------------p18h17p15h14h12-14-12-|   play x2  
D------------------------------------------------|  
A------------------------------------------------|  
E------------------------------------------------|  


		  

See also:

tabs Kelly Clarkson - Behind These Hazel Eyes tabs Michael Jackson - Beat it tabs Michael Jackson - Heal The World tabs Decode Acoustic - Paramore tabs Steven tyler & Santana - Just feel better(intro) tabs Michael Jackson - Billie Jean (Fingerstyle)
e-chords

Other versions:

tabs Wild Nothing - Shadow tabs Ashlee Simpson - Shadow ( live ) tabs Red - Shadow And Soul tabs Extreme - Shadow Boxing tabs Slash - Shadow Life tabs Bring Me The Horizon - Shadow Moses
auto scroll beats size up size down change color hide chords drawings
tab show chords e-chords YouTube Clip e-chords hide all tabs e-chords go to top tab

share