Ashlee Simpson

Nothing New

Ashlee Simpson

tabs

by  DANI_WT

save to print version add songbook text version e-mail correct tuner
chordsukulelecavacokeyboardtabbassdrumsharmonicaflute Guitar Pro
close

there isn't a video lesson for this song

chords

Nothing New

	  		Verso 1  
e|-------------------| 
B|-------------------| 
G|-------------------| 
D|-----2-----2---2---| 
A|---2---2-0---2---2-| 
E|-0-----------------|(REPETIR 5X) 
 
e|-------------------------------| 
B|-------------------------------| 
G|-------------------------------| 
D|-----0---------0---------------| 
A|---2---2-----4---4-------------| 
E|-3-------3/5-------------------| 
 
I found myself wrong again 
Staring out my window 
Wondering what it is I should have said 
 
 
e|--------------------------------------------------------| 
B|--------------------------------------------------------| 
G|---------------0----------------------------------------| 
D|-----2-----2-----2-----2-----2---2-------2-----2---2----| 
A|---2---2-0---2-------2---2-0---2---2---2---2-0---2---2--| 
E|-0-----------------0-----------------0-----------------0| 
 
e|-------------------------------| 
B|-------------------------------| 
G|-------------------------------| 
D|-----0---------0---------------| 
A|---2---2-----4---4-------------| 
E|-3-------3/5-------------------| 
 
I found myself at home again 
Waiting for the after call 
The fallout that feels like such a mess 
 
Pre Coro 
 
C D C 
Ohhhh I can only be myself 
C D A5 
I'm sorry that's hell for you 
 
Coro 
 
E D G A5 E D 
Heyyy so what's my damage today 
G A5 E D 
Don't let me get in your way 
D G A5 E 
Let it out like you always do 
E D G 
The trouble between me and you 
A5 
Is nothing new 
 
Verso2 
 
e|--------------------------------------------------------| 
B|--------------------------------------------------------| 
G|---------------0----------------------------------------| 
D|-----2-----2-----2-----2-----2---2-------2-----2---2----| 
A|---2---2-0---2-------2---2-0---2---2---2---2-0---2---2--| 
E|-0-----------------0-----------------0-----------------0| 
 
e|-------------------------------| 
B|-------------------------------| 
G|-------------------------------| 
D|-----0---------0---------------| 
A|---2---2-----4---4-------------| 
E|-3-------3/5-------------------| 
 
So I listen to you complain and then 
I bite my tongue in vain again 
As I let it all just slowly settle in 
 
e|--------------------------------------------------------| 
B|--------------------------------------------------------| 
G|---------------0----------------------------------------| 
D|-----2-----2-----2-----2-----2---2-------2-----2---2----| 
A|---2---2-0---2-------2---2-0---2---2---2---2-0---2---2--| 
E|-0-----------------0-----------------0-----------------0| 
 
e|-------------------------------| 
B|-------------------------------| 
G|-------------------------------| 
D|-----0---------0---------------| 
A|---2---2-----4---4-------------| 
E|-3-------3/5-------------------| 
 
Such a pretty picture that you paint 
I'm so vile while you're a saint 
Funny how your eyes see thick not thin 
 
Pre Coro 
C D C 
Ohhhh I can only be myself 
C D A5 
You're lookin for someone else 
 
Coro 
 
E D G A5 E D 
Heyyy so what's my damage today 
G A5 E D 
Don't let me get in your way 
D G A5 E 
Let it out like you always do 
E D G 
The trouble between me and you 
A5 
Is nothing new 
 
Puente 
 
C D E 
You know how to give it but you can't take it 
E D C 
It's all just a waste now you can save it 
C 
No matter what I do 
D A5 
Is never good enough, never good enough 
 
Coro 
 
E D G A5 E D 
Heyyy so what's my damage today 
G A5 E D 
Don't let me get in your way 
D G A5 E 
Let it out like you always do 
E D G 
The trouble between me and you 
A5 E D G 
Is nothing new 
A5 E D G A5 
Is nothing new 
 
E D G A5 
Save your breath cause here comes the truth 
E D G 
I'm over the drama of you 
A5 
And that's something new 
 
e|--------------------------------------------------------| 
B|--------------------------------------------------------| 
G|--------------------------------------------------------| 
D|-----2-----2---2-------2-----2---2-------2-----2---2----| 
A|---2---2-0---2---2---2---2-0---2---2---2---2-0---2---2--| 
E|-0-----------------0-----------------0-----------------0| 
 
e|-------------------------------| 
B|-------------------------------| 
G|-------------------------------| 
D|-----0---------0---------------| 
A|---2---2-----4---4-------------| 
E|-3-------3/5-------------------| 
 
I'm staring out my window 
Wondering what it is I should have said 
 

		  

Full key step upFull key step up
Half key step upHalf key step up
Half key step downHalf key step down
Full key step downFull key step down
hide glossary

See also:

tabs Cyndi Lauper - Time After Time tabs Backstreet Boys - Everybody (Backstreet's Back) tabs Michael Jackson - Billie Jean (Fingerstyle) tabs Jason Mraz - I'm Yours (acoustic) tabs Placebo - Every You, Every Me tabs Justin Timberlake - Cry Me A River
e-chords

Other versions:

tabs Ashlee Simpson - Nothing New
auto scroll beats size up size down change color hide chords drawings
tab show chords e-chords YouTube Clip e-chords hide all tabs e-chords go to top tab

share