Ashlee Simpson

la la la

Ashlee Simpson

tabs

by  EUROPEU

save to print version add songbook text version e-mail correct tuner
chordsukulelecavacokeyboardtabbassdrumsharmonicaflute Guitar Pro
close

there isn't a video lesson for this song

chords

la la la

	  		Intro/verse 
e----------------------------------------------------- 
b----------------------------------------------------- 
g----4--4--4--4--4--4--7-/9-7--4--4--4--4--4--4--4--4    
d----4--4--4--4--4--4--7-/9-7--4--4--4--4--4--4--4--4    played 3x 
a----2--2--2--2--2--2--5-/7-5--2--2--2--2--2--2--2--2 
e----------------------------------------------------- 
                                         you can...... 
Pre-Chorus 
e---------------------------------- 
b---------------------------------- 
g---4-4-4-4-4-4-4-4-7-7-7-7-7-7-7-7 
d---4-4-4-4-4-4-4-4-7-7-7-7-7-7-7-7 
a---2-2-2-2-2-2-2-2-5-5-5-5-5-5-5-5 
e---------------------------------- 
....oooooo i have waited....... 
 
Chorus 
e---------------------------------------------------------------- 
b---------------------------------------------------------------- 
g-4-4-4-4-4-4-4-4-7-7-7-7-7-7-7-7-----------------9-9-9-9-9-9-9-9  played 2x 
d-4-4-4-4-4-4-4-4-7-7-7-7-7-7-7-7-7-7-7-7-7-7-7-7-9-9-9-9-9-9-9-9 
a-2-2-2-2-2-2-2-2-5-5-5-5-5-5-5-5-7-7-7-7-7-7-7-7-7-7-7-7-7-7-7-7 
e---------------------------------5-5-5-5-5-5-5-5---------------- 
you make me wanna lala.... 
 
Verse 
e----------------------------------------------------- 
b----------------------------------------------------- 
g----4--4--4--4--4--4--7-/9-7--4--4--4--4--4--4--4--4    
d----4--4--4--4--4--4--7-/9-7--4--4--4--4--4--4--4--4    played 3x 
a----2--2--2--2--2--2--5-/7-5--2--2--2--2--2--2--2--2 
e----------------------------------------------------- 
                                         you can...... 
Pre-Chorus 
e---------------------------------- 
b---------------------------------- 
g---4-4-4-4-4-4-4-4-7-7-7-7-7-7-7-7 
d---4-4-4-4-4-4-4-4-7-7-7-7-7-7-7-7 
a---2-2-2-2-2-2-2-2-5-5-5-5-5-5-5-5 
e---------------------------------- 
....oooooo i have waited....... 
 
Chorus 
e---------------------------------------------------------------- 
b---------------------------------------------------------------- 
g-4-4-4-4-4-4-4-4-7-7-7-7-7-7-7-7-----------------9-9-9-9-9-9-9-9  played 4x 
d-4-4-4-4-4-4-4-4-7-7-7-7-7-7-7-7-7-7-7-7-7-7-7-7-9-9-9-9-9-9-9-9 
a-2-2-2-2-2-2-2-2-5-5-5-5-5-5-5-5-7-7-7-7-7-7-7-7-7-7-7-7-7-7-7-7 
e---------------------------------5-5-5-5-5-5-5-5---------------- 
you make me wanna lala.... 
 
Bridge, you can even add a solo in with a B pentatonic scale, but this is whats  
played in  
the song 
e----------- 
b----------- 
g----9b-7---      played 16x 
d----------9 
a----------- 
e----------- 
 
e----------------------------------------------------- 
b----------------------------------------------------- 
g----4--4--4--4--4--4--7-/9-7--4--4--4--4--4--4--4--4    
d----4--4--4--4--4--4--7-/9-7--4--4--4--4--4--4--4--4    played 2x 
a----2--2--2--2--2--2--5-/7-5--2--2--2--2--2--2--2--2 
e----------------------------------------------------- 
 
e---------------------------------------------------------------- 
b---------------------------------------------------------------- 
g-4-4-4-4-4-4-4-4-7-7-7-7-7-7-7-7-----------------9-9-9-9-9-9-9-9  played 4x 
d-4-4-4-4-4-4-4-4-7-7-7-7-7-7-7-7-7-7-7-7-7-7-7-7-9-9-9-9-9-9-9-9 
a-2-2-2-2-2-2-2-2-5-5-5-5-5-5-5-5-7-7-7-7-7-7-7-7-7-7-7-7-7-7-7-7 
e---------------------------------5-5-5-5-5-5-5-5---------------- 
you make me wanna lala.... 
 
e----------- 
b----------- 
g----9b--7--     played 16x 
d----------9 
a----------- 
e----------- 
 
e--------- 
b--------- 
g---4-----  let chord fade 
d---4----- 
a---2----- 
e--------- 
 

		  

Full key step upFull key step up
Half key step upHalf key step up
Half key step downHalf key step down
Full key step downFull key step down
hide glossary

See also:

tabs Cyndi Lauper - Time After Time tabs Backstreet Boys - Everybody (Backstreet's Back) tabs Michael Jackson - Billie Jean (Fingerstyle) tabs Jason Mraz - I'm Yours (acoustic) tabs Placebo - Every You, Every Me tabs Justin Timberlake - Cry Me A River
e-chords

Other versions:

tabs Ashlee Simpson - la la la tabs Incubus - La La La Zoom Zoom Zoom
auto scroll beats size up size down change color hide chords drawings
tab show chords e-chords YouTube Clip e-chords hide all tabs e-chords go to top tab

share