As Cities Burn

Wake Dead Man Wake

As Cities Burn

tabs

by  ADALGOMES

save to print version add songbook text version e-mail correct tuner
chordsukulelecavacokeyboardtabbassdrumsharmonicaflute Guitar Pro
close

there isn't a video lesson for this song

chords

Wake Dead Man Wake

	  		 

Intro:

Guitar 1 (0:00 - 0:24) 

D|-----------------------------------------| 
A|-----------------------------------------| 
F|-----------------------------------------| 
C|-0--0-0-0-0---0-0-------0--0-0-0-0---0-0-| 
G|-0--0-0-0-0---0-0-------0--0-0-0-0---0-0-| 
C|-0--0-0-0-0---0-0-------0--0-0-0-0---0-0-| X2 

Guitar 2 (0:00 - 0:06) 

D|------------------| 
A|------------------| 
F|------------------| 
C|------------------| 
G|------------------| 
C|-0--0-0-0-0---0-0-| (Feedback) 

(0:06 - 0:24) 

D|-----------0-------0-------0-----| 
A|-6/11\8/10------10------10-------| 
F|-------------10------10------10--| 
C|---------------------------------| 
G|---------------------------------| 
C|---------------------------------| X6 

Guitar 3 (0:06 - 0:21) 

D|---6-----6-----6-----6-----6----| 
A|-----5-5---5-5---5-5---5-5---5--| 
F|--------------------------------| 
C|--------------------------------| 
G|--------------------------------| 
C|--------------------------------| X5 

(0:21-0:24) 

D|-13----13----15----17-| 
A|----14----14----14----| 
F|----------------------| 
C|----------------------| 
G|----------------------| 
C|----------------------| 

----- 
Verse 
----- 

Guitar 1 (0:24-0:48) 

D|---------5-----------13----------5-----6--------| 
A|-------3--------6/11-----------3----/5---5------| 
F|---2/3--------7------------2/3------------------| 
C|-0----------8------------0-----------------2-2--| 
G|-------------------------------------------2-2--| 
C|-------------------------------------------2-2--| 

D|---------5-----------13----------5---------------------| 
A|-------3--------6/11-----------3-----------------------| 
F|---2/3--------7------------2/3-------------------------| 
C|-0----------8------------0-----------8888888888888888--| 
G|-------------------------------------8888888888888888--| 
C|-------------------------------------8888888888888888--| X2 (both bars) 
                                       ................ 

Guitar 2 (0:24-0:48) 

D|------------------------------------------------| 
A|---3-----8-----6-----5-----6-----5-----3--------| 
F|------------------------------------------------| 
C|-3-----8-----7-----5-----7-----5-----3-----2-2--| 
G|-------------------------------------------2-2--| 
C|-------------------------------------------2-2--| 

D|-------------------------------------------------------| 
A|---3-----8-----6-----5-----6-----5---------------------| 
F|-------------------------------------------------------| 
C|-3-----8-----7-----5-----7-----5-----8888888888888888--| 
G|-------------------------------------8888888888888888--| 
C|-------------------------------------8888888888888888--| X2 (both bars) 
                                       ................ 

------ 
Chorus 
------ 

Guitar 1 & 2 (0:52-1:23) 

D|----------------------------------------------| 
A|----------------------------------------------| 
F|-------------------17-------12------15--------| 
C|-0---0---0---0---0----------------------------| 
G|-0---0---0---0---0-15-(x12)-13-(x6)-16-(x12)--| 
C|-0---0---0---0---0----------------------------| 

D|-------------------------------------------------| 
A|-------------------------------------------------| 
F|-------------------17-------12------15-----------| 
C|-0---0---0---0---0----------------------------0--| 
G|-0---0---0---0---0-15-(x12)-13-(x6)-16-(x16)--0--| 
C|-0---0---0---0---0----------------------------0--| 

Guitar 1 (1:23-1:34) 

Keep letting the C ring out 

Guitar 2 (1:23-1:34) 

D|----------0-----------0-----------0---0---0---0---0---0---| 
A|------------------------6-----------6---6---6---6---6---6-| 
F|---------3---------3--------------------------------------| 
C|-2---2-------/8\2-----------------------------------------| 
G|----------------------------------------------------------| 
C|----------------------------------------------------------| 

------ 
Bridge 
------ 

Guitars 1 & 2 (1:34-2:05) 

D|-----------------------------------------------| 
A|---------------15-------------------15---------| 
F|---------15-12----15-12-10/17\14-------14------| 
C|---12----------------------------15-------15---| 
G|------13---------------------------------------| 
C|-0---------------------------------------------| 

D|-----------------------------------------------| 
A|-----------------------------------------------| 
F|---------15-12-14-10-12--12~-12~--12~-15\------| 
C|---14------------------------------------------| 
G|------13---------------------------------------| 
C|-0---------------------------------------------| 


D|-----------------------------------------------| 
A|---------------15-------------------15---------| 
F|---------15-12----15-12-10/17\14-------14------| 
C|---12----------------------------15-------15---| 
G|------13---------------------------------------| 
C|-0---------------------------------------------| 

D|-----------------------------------------------| 
A|-----------------------------------------------| 
F|---------15-12-14-10-12--12~-12~--12~-19\------| 
C|---14------------------------------------------| 
G|------13---------------------------------------| 
C|-0---------------------------------------------| 


D|-----------------------------------------------| 
A|---------------15-------------------15---------| 
F|---------15-12----15-12-10/17\14-------14------| 
C|---12----------------------------15-------15---| 
G|------13---------------------------------------| 
C|-0---------------------------------------------| 

D|-----------------------------------------------| 
A|-----------------------------------------------| 
F|---------15-12-14-10-12--17p12h17p12h17p12-19\-| 
C|---14------------------------------------------| 
G|------13---------------------------------------| 
C|-0---------------------------------------------| 


D|-----------------------------------------------| 
A|---------------15-------------------15---------| 
F|---------15-12----15-12-10/17\14-------14------| 
C|---12----------------------------15-------15---| 
G|------13---------------------------------------| 
C|-0---------------------------------------------| 

D|-----------------------------------------------| 
A|-----------------------------------------------| 
F|---------15-12-14-10-12--12~-12~--12~-17\------| 
C|---14------------------------------------------| 
G|------13---------------------------------------| 
C|-0---------------------------------------------| 

----- 
Outro 
----- 

Guitar 1 (2:05-3:08) 

D|---------------------------------------| 
A|------6----6----6----6----6----6----6--| 
F|---10---10---10---10---10---10---10----| 
C|---------------------------------------| 
G|---------------------------------------| 
C|-0-------------------------------------| X6 

D|-------------------| 
A|------6----6----6--| 
F|---10---10---10----| 
C|-------------------| 
G|-------------------| 
C|-0-----------------| (Then lots of feedback) 

Guitar 2 (2:05-3:08) 

D|---------------------------------------| 
A|------6----6----6----6----6----6----6--| 
F|---10---10---10---10---10---10---10----| 
C|---------------------------------------| 
G|---------------------------------------| 
C|-0-------------------------------------| X3 

D|--------------------------------| 
A|-----5---5---5---5---5---5---5--| 
F|---9---9---9---9---9---9---9----| 
C|--------------------------------| 
G|--------------------------------| 
C|-0------------------------------| 

D|--------------------------------| 
A|-----3---3---3---3---3---3---3--| 
F|---7---7---7---7---7---7---7----| 
C|--------------------------------| 
G|--------------------------------| 
C|-0------------------------------| 

D|--------------------------------| 
A|-----3---3---3---3---3---3---3--| 
F|---5---5---5---5---5---5---5----| 
C|--------------------------------| 
G|--------------------------------| 
C|-0------------------------------| 

D|--------------------------------------------------------| 
A|-----3---3-------3-------3-------3-------3-------3------| 
F|---5---5---5---5---5---5---5---5---5---5---5---5---5----| 
C|-5-----------5-------5-------5-------5-------5-------5--| 
G|--------------------------------------------------------| 
C|--------------------------------------------------------| (Feedback) 




| .  palm mute 
| /  slide up 
| \  slide down 
| h  hammer-on 
| p  pull-off 
| ~  vibrato 
| +  harmonic 
| x  Mute note 
 
		  

Full key step upFull key step up
Half key step upHalf key step up
Half key step downHalf key step down
Full key step downFull key step down
hide glossary

See also:

tabs Red Hot Chili Peppers - By The Way (ver. 2) tabs Red Hot Chili Peppers - Scar Tissue (All Solos) tabs Good Charlotte - Lifestyles of the Rich and Famous tabs Tonic - If You Could Only See tabs Red Hot Chili Peppers - Don't Forget Me tabs Paramore - The Only Exception
e-chords

Other versions:

tabs As Cities Burn - Wake Dead Man Wake
auto scroll beats size up size down change color hide chords drawings
tab show chords e-chords YouTube Clip e-chords hide all tabs e-chords go to top tab

share