Armando Palomas

Acidez Brutal

Armando Palomas

tabs

by  MAYATATU

save to print version add songbook text version e-mail correct tuner
chordsukulelecavacokeyboardtabbassdrumsharmonicaflute Guitar Pro
close

there isn't a video lesson for this song

chords

Acidez Brutal

(Armando Palomas)

	  		Una vez mas aqui con esta tab 

Intro (Riff 1) 

e--------------------------------- 
b--------------------------------- 
g---------------------------------    (x2) 
D--------------------------------- 
A---7-7-7-8----7-7-7-8------------ 
E---0-0-0-0----0-0-0-0------------ 

Riff 1 

Garnachas quesadillas enchiladas y atole 
tamales sopes burros tacos de pozole 
enchiladas de venida sopla perros bolillos 
aguados pezcuezos de pollo 
Tacos de buche trompa y oreja filete salkchicha 
miñon y cabeza higado suadero birria cirazon carnitas 
de perro ojo y lechon 
grrrr necesito un alka seltzer 

(se repite con el riff 1) 

despues es  
Riff 2 
e---------------      -----2---0---3------- 
b---------------      -----3---2---0------- 
g---------------(x2)  -----2---2---0-------  
D-2-2-2-2-3-2---      ---------2---0------- 
A-2-2-2-2-3-2---      ---------0---2------- 
E-0-0-0-0-0-0---      -------------3------- 


Se repite y despues puro E (mi mayor) pero todo  
todo depende de tu habilidad de rasgueo 


El coctel de jaiba ypulpo ostion viejo y camaron  

E 
la acidez que yo me traigo no me la quita ni dios 
no me la quita ni dios la acidez que yo me traigo 
ostion viejo y camaron 

cuando escoje ala gen te es 
E G A
		  

Full key step upFull key step up
Half key step upHalf key step up
Half key step downHalf key step down
Full key step downFull key step down
hide glossary

See also:

tabs Molotov - Dance And Dense Denso tabs Interpuesto - De Chica En Chica tabs Los Apson - El Hombre Frío tabs Molotov - Parasito tabs Los Apson - Decepcion tabs Azul Violeta - Volver Jamás
e-chords

Other versions:

tabs Armando Palomas - Acidez Brutal
auto scroll beats size up size down change color hide chords drawings
tab show chords e-chords YouTube Clip e-chords hide all tabs e-chords go to top tab

share