Arkells

Book Club

Arkells

tabs

by  SABRJOAO

save to print version add songbook text version e-mail correct tuner
chordsukulelecavacokeyboardtabbassdrumsharmonicaflute Guitar Pro
close

there isn't a video lesson for this song

chords

Book Club

	  		Book Club - The Arkells from "Michigan Left" 

Intro: 

Gtr1 
----------------------11-11-14-11~------------11--------------11-----| 
------------12--12/14------------------14--14----------14--14--------| 
-11--11/13---------------------------------------13~-------------13~-| 
---------------------------------------------------------------------| 
---------------------------------------------------------------------| 
---------------------------------------------------------------------| 


Gtr2 
---0---0---0---0-|---0---0---0---0-|---0---0---0---0---0---0---0---0-| 
---0---0---0---0-|---0---0---0---0-|---0---0---0---0---0---0---0---0-| 
-----------------|-----6-------6---|-6---6---4---4---6---6---4---4---| 
-2---2---2---2---|-4-------4-------|---------------------------------| 
-----------------|-----------------|---------------------------------| 
-----------------|-----------------|---------------------------------| 


Alternate Intro: (played live this way) 
Gtr2 
-0-0-0-0-0-0-0-0-|-0-0-0-0-0-0-0-0-|-0-0-0-0-0-0-0-0-0-0-0-0-0-0-0-0-| 
-5-5-5-5-5-5-5-5-|-4-4-4-4-4-4-4-4-|-2-2-2-2-2-2-2-2-2-2-2-2-2-2-2-2-| 
-4-4-4-4-4-4-4-4-|-4-4-4-4-4-4-4-4-|-4-4-4-4-4-4-4-4-4-4-4-4-4-4-4-4-| 
-----------------|-----------------|---------------------------------| 
-----------------|-----------------|---------------------------------| 
-----------------|-----------------|---------------------------------| 

Verse: 
 "I was headin to the bus stop..." 
 B                             C#m 
-7~--------------------------|-9~--------------------------| 
-7~--------------------------|-9~--------------------------| 
-8~--------------------------|-9~--------------------------| 
-9~--------------------------|-11~-------------------------| 
-9~--------------------------|-11~-------------------------| 
-7~--------------------------|-9~--------------------------| 


Pre-Chorus 

(chords are the same as verse chords during first time around, after that its these,  
lead riff still plays on all of them) 

 "Then We hum along..." 
 B               C#m              Abm              E 
-7~------------|-9~-------------|-4~-------------|-0~-------------| 
-7~------------|-9~-------------|-4~-------------|-0~-------------| 
-8~------------|-9~-------------|-4~-------------|-1~-------------| 
-9~------------|-11~------------|-6~-------------|-2~-------------| 
-9~------------|-11~------------|-6~-------------|-2~-------------| 
-7~------------|-9~-------------|-4~-------------|-0~-------------| 

Gtr2                                                        to chorus... 
---------------------------------------------------------------------| 
---------------------------------------------------------------------| 
-----4-------4h6------4-------4h6-----4-------4h6-----4-------4h6-4~-| 
-4-6---6-4-6------4-6---6-4-6-----4-6---6-4-6-----4-6---6-4-6--------| 
---------------------------------------------------------------------| 
---------------------------------------------------------------------| 

Chorus: 

Piano: E                     Abm 
      "Then You give me one, Another you just finished" 

       C#m               C#m         B 
      "Your my library, always open for business" 
                             (ooo ooo oooooooh hooo) 
Gtr1 

 "Line after line...." 
----------------|-4-------------|-4-------------|-4------------------| 
-9--------------|-4-------------|-5-------------|-5---------4--------| 
-9--------------|-4-------------|-6-------------|-6---------4--------| 
-9--------------|-6-------------|-6-------------|-6---------4--------| 
-7--------------|-6-------------|-4-------------|-4---------2--------| 
----------------|-4-------------|---------------|--------------------| 


Gtr2 
----------------------------------------------------------------------| 
----------------------------------------------------------------------| 
-11------11----------------------11------11---------------------------| 
-----13------13---11h13-13-13--------13------13---11h13-13-13---------| 
----------------------------------------------------------------------| 
----------------------------------------------------------------------| 


----------------------11-11-14-11~------------11--------------11-----| 
------------12--12/14------------------14--14----------14--14--------| 
-11--11/13---------------------------------------13~-------------13~-| 
---------------------------------------------------------------------| 
---------------------------------------------------------------------| 
---------------------------------------------------------------------| 

Bridge: 

Piano: B                   C#m 

       Abm           F#        E 

                             (ooo ooo oooooooh hooo) 
        B                                        C#m 
      "Then You Give me on another you just finished" 
       B                                        C#m 
      "You never show it, your just sittin with it" 

     (just vocals) 
      "But I know the score and your killin it" 


END CHORUS: 

Gtr2 (on last repeat, ending) 

   "To some white shoes, or a blue collar...." 
E                     Abm              C#m             C#m     B 
----------------------11-11-14-11~------------11--------------11------| 
------------12--12/14------------------14--14----------14--14---------| 
-11--11/13---------------------------------------13~-------------13~--| 
----------------------------------------------------------------------| 
----------------------------------------------------------------------| 
----------------------------------------------------------------------| 
   "To some white shoes, or a blue collar...." 
E                     Abm              C#m             C#m     B 
----------------------11-11-14-11~----------11--------------11--------| 
------------12--12/14----------------14--14----------14--14-----------| 
-11--11/13-------------------------------------13~-------------13p11--| 
----------------------------------------------------------------------| 
----------------------------------------------------------------------| 
----------------------------------------------------------------------| 

    B 
-------| 
-------| 
-11-11-| END 
-------| 
-------| 
-------| 


Lyrics: 

I was heading to the bus stop Matty 
You were reading in your room, holed up all day 
You picked me up in a brand new Audi 
And said "she bought it for herself on mother's day". 

Then we hum along to some familiar tune 
"I like women and songs", you said "it's from volume two". 

Then you give me one, another you just finished. 
You're my library, always open for business. 
You never show it, you're just sitting with it. 
But I know the score, and you're killin it. 

Line after line, when you're taking it in. 
Time after time, when you try to fit in to some white shoes or a blue 
Collar 

We listened to your choice for the first 10 seconds 
I turned the dial and it turned your expression, 
I said "now haven't you learned your last lesson?" 
I try to understand but I just don't get it. 

Then we hum along all from memory, 
"I like women and songs", you said "it's from volume three". 

Take me to the bus stop Matty, drive me back to Hamilton. 
You talk about your step dad funny, you sound just like your father's son. 
In '98 he liberated every latin rhythm. 
He never used to play it cause she could never stand to listen. 
		  

Full key step upFull key step up
Half key step upHalf key step up
Half key step downHalf key step down
Full key step downFull key step down
auto scroll beats size up size down change color hide chords drawings
tab show chords e-chords YouTube Clip e-chords hide all tabs e-chords go to top tab

share