Archive

Wrong

Archive

tabs

by  HUGO_RODRIGUES

save to print version add songbook text version e-mail correct tuner
chordsukulelecavacokeyboardtabbassdrumsharmonicaflute Guitar Pro
close

there isn't a video lesson for this song

chords

Wrong

Key:  B More
Wrong Key F#F#
Wrong Key GG
Wrong Key G#G#
Wrong Key AA(one step down)
Wrong Key A#A#(half step down)
Wrong Key BB(original key)
Wrong Key CC(half step up)
Wrong Key C#C#(one step up)
Wrong Key DD
Wrong Key D#D#
Wrong Key EE
Wrong Key FF
	  		



Part A (0:00) 

e-----------------------------------|----------4---------------4--------| 
b----------4---------------4--------|--------4---4-----------4---4------| 
g--------5---5-----------5---5------|------6-------6-------6-------6----| 
d------6-------6-------6-------6----|----6-----------6---6-----------6--|  x3 
a----6-----------6---6-----------6--|--4---------------4----------------| 
E--4---------------4----------------|-----------------------------------| 
   Why can't I see it's all not wrong? 
   Why can't you be here again? 
   Still don't believe I know you're gone 



Part B (0:38) 

e----------6---------------6--------|-------------------------------------| 
b--------6---6-----------6---6------|----------4---------------4----------| 
g------8-------8-------8-------8----|--------5---5-----------5---5--------| 
d----8-----------8---8-----------6--|------6-------6-------6-------6------| 
a--6---------------6----------------|----6-----------6---6-----------6----| 
E-----------------------------------|--4---------------4---------------4--| 
  I miss your love                     I miss your love 
		  

Full key step upFull key step up
Half key step upHalf key step up
Half key step downHalf key step down
Full key step downFull key step down
auto scroll beats size up size down change color hide chords drawings
tab show chords e-chords YouTube Clip e-chords hide all tabs e-chords go to top tab

share