Arch Enemy

starbreaker

Arch Enemy

tabs

by  EUROPEU

save to print version add songbook text version e-mail correct tuner
chordsukulelecavacokeyboardtabbassdrumsharmonicaflute Guitar Pro
close

there isn't a video lesson for this song

chords

starbreaker

	  		c|--------------------------------------| 
 g|--------------------------------------| 
d#|-----------------3-----------------5--| 
a#|--6--5--3--6--5--3--6--5--3--6--5--5--| 
 f|--6--5--3--6--5--1--6--5--3--6--5--3--| 
a#|--6--5--3--6--5-----6--5--3--6--5-----| 
 
 c|--------------------------| 
 g|--------------------------| 
d#|--------------------------| 
a#|--------------------6--8--| 
 f|--8--6--8-----6--8--------| 
a#|----------10--------------| 
 
 c|----------------------------------| 
 g|----------------------------------| 
d#|---------------6~~-------------8--| 
a#|--10--6-----6------6-----6--6--8--| 
 f|--10--6--4------------4-----6--6--| 
a#|--10--6---------------------6-----| 
         . 
 

		  

See also:

tabs Arch Enemy - Black Earth tabs Arch Enemy - Burning Angel tabs Arch Enemy - War Eternal tabs Arch Enemy - starbreaker tabs Arch Enemy - Burning Bridges tabs Arch Enemy - We Will Rise
e-chords

Other versions:

tabs Arch Enemy - starbreaker
auto scroll beats size up size down change color hide chords drawings
tab show chords e-chords YouTube Clip e-chords hide all tabs e-chords go to top tab

share