Apocalypse

Monchhichi

Apocalypse

tabs

by  JOSECBX

save to print version add songbook text version e-mail correct tuner
chordsukulelecavacokeyboardtabbassdrumsharmonicaflute Guitar Pro
close

there isn't a video lesson for this song

chords

Monchhichi

	  		?Those tears??  
e|----------------------------------|  
B|----------------------------------|  
G|-------7---6---4------------------|  
D|---5---7---6---4-----4---5--------|  
A|---5---5---4---2-----4---5---x4---|  
E|---3-----------------2---3--------|  
 
?Cats and dogs??  
e|-------------------|  
B|-------------------|  
G|---------5---------|  
D|---5-----5---------|  
A|---5-----3----x2---|  
E|---3---------------|  
 
?Bang, bang, bang??  
e|--------------------|  
B|--------------------|  
G|-------7---9--------|  
D|---5---7---9--------|  
A|---5---5---7---x8---|  
E|---3----------------|  
 
Fill  
e|-----------------------|  
B|-----------------------|  
G|-----------------------|  
D|---4h5p4-0---0---------|  
A|---------------3-2-0---|  
E|-----------------------|  
 
?Stepping on steeples??  
e|--------------------------------------------|  
B|--------------------------------------------|  
G|---------5-----------7-----5---4------------|  
D|---5-----5-----5-----7-----5---4---7--------|  
A|---5-----3-----5-----5-----3---2---7---x2---|  
E|---3-----------3-------------------5--------|  
 
Fill after above (1st time only)  
e|-----------|  
B|-----------|  
G|---5---7---|  
D|---5---7---|  
A|---3---5---|  
E|-----------|  
 
Comments to the next mail: 
[email protected] 

		  

See also:

tabs Apocalypse - Monchhichi
e-chords

Other versions:

tabs Apocalypse - Monchhichi
auto scroll beats size up size down change color hide chords drawings
tab show chords e-chords YouTube Clip e-chords hide all tabs e-chords go to top tab

share