Antiseen

Up All Night

Antiseen

tabs

by  IRONPOWER4EVER

save to print version add songbook text version e-mail correct tuner
chordsukulelecavacokeyboardtabbassdrumsharmonicaflute Guitar Pro
close

there isn't a video lesson for this song

chords

Up All Night

	  		
Intro 
E---------------------------------| 
B---------------------------------| 
G-2-2-2---7-5-2---2-2-2---7-5-2---| 
D-2-2-2---7-5-2---2-2-2---7-5-2---| 
A-0-0-0---5-3-0---0-0-0---5-3-0---| 
E---------------------------------| 


Verse 
E---------------------------------------------------------------| 
B---------------------------------------------------------------| 
G-2-2-2---7-5-2---2-2-2---7-5-2---2-2-2---7-5-2---2-2-2---7-5-2-| 
D-2-2-2---7-5-2---2-2-2---7-5-2---2-2-2---7-5-2---2-2-2---7-5-2-| 
A-0-0-0---5-3-0---0-0-0---5-3-0---0-0-0---5-3-0---0-0-0---5-3-0-| 
E---------------------------------------------------------------| 


Chorus ("Up All Night...") 
E---------------------------------|------------------------------------------| 
B---------------------------------|------------------------------------------| 
G-7-5-2---7-5-2---7-5-2---7-5-2---|------------------------------------------| 
D-7-5-2---7-5-2---7-5-2---7-5-2---|-5----------------17---5---------------17-| 
A-5-3-0---5-3-0---5-3-0---5-3-0---|-5----------------17---5---------------17-| 
E---------------------------------|-3---------------/15---3--------------/15-| 


E----------------------------------------------------| 
B----------------------------------------------------| 
G---------------------------------------------7-5-2--| 
D-5-----------------/17-----------------/17---7-5-2--| 
A-5-----------------/17-----------------/17---5-3-0--| 
E-3-----------------/15-----------------/15----------| 


Verse 
E---------------------------------------------------------------| 
B---------------------------------------------------------------| 
G-2-2-2---7-5-2---2-2-2---7-5-2---2-2-2---7-5-2---2-2-2---7-5-2-| 
D-2-2-2---7-5-2---2-2-2---7-5-2---2-2-2---7-5-2---2-2-2---7-5-2-| 
A-0-0-0---5-3-0---0-0-0---5-3-0---0-0-0---5-3-0---0-0-0---5-3-0-| 
E---------------------------------------------------------------| 


Chorus ("Up All Night...") 
E---------------------------------|------------------------------------------| 
B---------------------------------|------------------------------------------| 
G-7-5-2---7-5-2---7-5-2---7-5-2---|------------------------------------------| 
D-7-5-2---7-5-2---7-5-2---7-5-2---|-5----------------17---5---------------17-| 
A-5-3-0---5-3-0---5-3-0---5-3-0---|-5----------------17---5---------------17-| 
E---------------------------------|-3---------------/15---3--------------/15-| 

E----------------------------------------------------| 
B----------------------------------------------------| 
G---------------------------------------------7-5-2--| 
D-5-----------------/17-----------------/17---7-5-2--| 
A-5-----------------/17-----------------/17---5-3-0--| 
E-3-----------------/15-----------------/15----------| 


Verse 
E---------------------------------------------------------------| 
B---------------------------------------------------------------| 
G-2-2-2---7-5-2---2-2-2---7-5-2---2-2-2---7-5-2---2-2-2---7-5-2-| 
D-2-2-2---7-5-2---2-2-2---7-5-2---2-2-2---7-5-2---2-2-2---7-5-2-| 
A-0-0-0---5-3-0---0-0-0---5-3-0---0-0-0---5-3-0---0-0-0---5-3-0-| 
E---------------------------------------------------------------| 


Chorus ("Up All Night...") 
E---------------------------------|------------------------------------------| 
B---------------------------------|------------------------------------------| 
G-7-5-2---7-5-2---7-5-2---7-5-2---|------------------------------------------| 
D-7-5-2---7-5-2---7-5-2---7-5-2---|-5-5-5-5-5-5-5-5-5-5-5-5-5--5-5-5-5-5-5-5-| 
A-5-3-0---5-3-0---5-3-0---5-3-0---|-5-5-5-5-5-5-5-5-5-5-5-5-5-5-5-5-5-5-5-5--| 
E---------------------------------|-3-3-3-3-3-3-3-3-3/15--3-3-3-3-3-3-3-3/15-| 


E----------------------------------------------------| 
B----------------------------------------------------| 
G---------------------------------------------7-5-2--| 
D-5-----------------/17-----------------/17---7-5-2--| 
A-5-----------------/17-----------------/17---5-3-0--| 
E-3-----------------/15-----------------/15----------| 
		  

See also:

tabs Deep Purple - Black Night tabs Deep Purple - Soldier Of Fortune tabs Deep Purple - Demon's Eye tabs Ira! - Envelheço na Cidade tabs Deep Purple - Smoke on the Water (correct) tabs Ira! - Tarde Vazia (Acústico)
e-chords

Other versions:

tabs Blink 182 - Up All Night tabs Alex Clare - Up All Night tabs Antiseen - Up All Night tabs Kip Moore - Up All Night (acoustic)
auto scroll beats size up size down change color hide chords drawings
tab show chords e-chords YouTube Clip e-chords hide all tabs e-chords go to top tab

share