Antiseen

Two Headed Dog

Antiseen

tabs

by  VICTBORGES

save to print version add songbook text version e-mail correct tuner
chordsukulelecavacokeyboardtabbassdrumsharmonicaflute Guitar Pro
close

there isn't a video lesson for this song

chords

Two Headed Dog

	  		Main 
E-------------------------------------------------------------| 
B-------------------------------------------------------------| 
G-------------------------------------------------------------| 
D-7/9--9-9--7/9--9-9---7/9--9-9--7/9--9-9--5-5--7-7--7/9--9-9-| 
A-7/9--9-9--7/9--9-9---7/9--9-9--7/9--9-9--5-5--7-7--7/9--9-9-| 
E-5/7--7-7--5/7--7-7---5/7--7-7--5/7--7-7--3-3--5-5--5/7--7-7-| 


Verse             x3 
E-------------------|-----------------------------------------|------------| 
B-------------------|-----------------------------------------|------------| 
G-------------------|-----------------------------------------|------------| 
D-5-5--7-7--9-9-9-9-|--7/9--9-9--7/9--9-9--5-5--7-7--7/9--9-9-|-5-5/9--9-9-| 
A-5-5--7-7--9-9-9-9-|--7/9--9-9--7/9--9-9--5-5--7-7--7/9--9-9-|-5-5/9--9-9-| 
E-3-3--5-5--7-7-7-7-|--5/7--7-7--5/7--7-7--3-3--5-5--5/7--7-7-|-3-3/7--7-7-| 


Nothing to it, great Roky cover 
		  

See also:

tabs Deep Purple - Black Night tabs Deep Purple - Soldier Of Fortune tabs Deep Purple - Demon's Eye tabs Ira! - Envelheço na Cidade tabs Deep Purple - Smoke on the Water (correct) tabs Ira! - Tarde Vazia (Acústico)
e-chords

Other versions:

tabs Antiseen - Two Headed Dog
auto scroll beats size up size down change color hide chords drawings
tab show chords e-chords YouTube Clip e-chords hide all tabs e-chords go to top tab

share