Antiseen

Today Your Love

Antiseen

tabs

by  LUCICAMARGO

save to print version add songbook text version e-mail correct tuner
chordsukulelecavacokeyboardtabbassdrumsharmonicaflute Guitar Pro
close

there isn't a video lesson for this song

chords

Today Your Love

	  		
Verses 
E-----------------------------------------|-----------------------------------| 
B-----------------------------------------|-----------------------------------| 
G-5-5-5-5---------8/9-9-8/9-9-8/9-9-8/9-9-|-5-5-5-5---------9-9-9-9-8/9-9-9-9-| 
D-5-5-5-5-5-5-5-5-8/9-9-8/9-9-8/9-9-8/9-9-|-5-5-5-5-5-5-5-5-9-9-9-9-8/9-9-9-9-| 
A-3-3-3-3-5-5-5-5-6/7-7-6/7-7-6/7-7-6/7-7-|-3-3-3-3-5-5-5-5-7-7-7-7-6/7-7-7-7-| 
E---------3-3-3-3-------------------------|---------3-3-3-3-------------------| 


E-----------------------------------------|-----------------------------------| 
B-----------------------------------------|-----------------------------------| 
G-5-5-5-5---------8/9-9-8/9-9-8/9-9-8/9-9-|-5-5-5-5---------9-9-9-9-8/9-9-9-9-| 
D-5-5-5-5-5-5-5-5-8/9-9-8/9-9-8/9-9-8/9-9-|-5-5-5-5-5-5-5-5-9-9-9-9-8/9-9-9-9-| 
A-3-3-3-3-5-5-5-5-6/7-7-6/7-7-6/7-7-6/7-7-|-3-3-3-3-5-5-5-5-7-7-7-7-6/7-7-7-7-| 
E---------3-3-3-3-------------------------|---------3-3-3-3-------------------| 


Bridge ("Little German Boy...") 
E------------------|------------------|------------------|------------------| 
B------------------|------------------|------------------|------------------| 
G-7-7-7-7--9-9-9-9-|-7-7-7-7--9-9-9-9-|-7-7-7-7--9-9-9-9-|-7-7-7-7--9-9-9-9-| 
D-7-7-7-7--9-9-9-9-|-7-7-7-7--9-9-9-9-|-7-7-7-7--9-9-9-9-|-7-7-7-7--9-9-9-9-| 
A-5-5-5-5--7-7-7-7-|-5-5-5-5--7-7-7-7-|-5-5-5-5--7-7-7-7-|-5-5-5-5--7-7-7-7-| 
E------------------|------------------|------------------|------------------| 


Play it all 3 times in that exact order and that's the whole song 
		  

See also:

tabs Deep Purple - Black Night tabs Deep Purple - Soldier Of Fortune tabs Deep Purple - Demon's Eye tabs Ira! - Envelheço na Cidade tabs Deep Purple - Smoke on the Water (correct) tabs Ira! - Tarde Vazia (Acústico)
e-chords

Other versions:

tabs Antiseen - Today Your Love
auto scroll beats size up size down change color hide chords drawings
tab show chords e-chords YouTube Clip e-chords hide all tabs e-chords go to top tab

share