Antiseen

Thanks A Lot

Antiseen

tabs

by  IRONPOWER4EVER

save to print version add songbook text version e-mail correct tuner
chordsukulelecavacokeyboardtabbassdrumsharmonicaflute Guitar Pro
close

there isn't a video lesson for this song

chords

Thanks A Lot

	  		Verse 
E----------------------------------------------------------------------| 
B----------------------------------------------------------------------| 
G-------------------7-7-7-7-7-7-7-7-------------------7-7-7-7-7-7-7-7--| 
D--3-3-3-3-3-3-3-3--7-7-7-7-7-7-7-7--3-3-3-3-3-3-3-3--7-7-7-7-7-7-7-7--| 
A--3-3-3-3-3-3-3-3--5-5-5-5-5-5-5-5--3-3-3-3-3-3-3-3--5-5-5-5-5-5-5-5--| 
E--1-1-1-1-1-1-1-1-------------------1-1-1-1-1-1-1-1-------------------| 


Chorus 
E-------------------------| 
B-------------------------| 
G-3-3-3-3--5--------------| 
D-3-3-3-3--5----3-3-3-3-3-| 
A-1-1-1-1--3----3-3-3-3-3-| 
E---------------1-1-1-1-1-| 


Outro        x3 
E--------------|-----------| 
B--------------|-----------| 
G-3-3-3-3--5---|-----------| 
D-3-3-3-3--5---|-3-3-3-3-3-| 
A-1-1-1-1--3---|-3-3-3-3-3-| 
E--------------|-1-1-1-1-1-| 


Nothing to it, just listen for order 
		  

See also:

tabs Deep Purple - Black Night tabs Deep Purple - Soldier Of Fortune tabs Deep Purple - Demon's Eye tabs Ira! - Envelheço na Cidade tabs Deep Purple - Smoke on the Water (correct) tabs Ira! - Tarde Vazia (Acústico)
e-chords

Other versions:

tabs Third Eye Blind - Thanks A Lot tabs Antiseen - Thanks A Lot tabs Third Eye Blind - Thanks A Lot (ver. 2)
auto scroll beats size up size down change color hide chords drawings
tab show chords e-chords YouTube Clip e-chords hide all tabs e-chords go to top tab

share