Antiseen

Small Town Schizo

Antiseen

tabs

by  ANDRSOUZA

save to print version add songbook text version e-mail correct tuner
chordsukulelecavacokeyboardtabbassdrumsharmonicaflute Guitar Pro
close

there isn't a video lesson for this song

chords

Small Town Schizo

	  		Verse 
E-------------------| 
B-------------------| 
G-9-9--9-9-9--6--7--| 
D-9-9--9-9-9--6--7--| 
A-7-7--7-7-7--4--5--| 
E-------------------| 


Chorus 
E-------------------| 
B-------------------| 
G-4-4-4-4-4-4--2-3--| 
D-4-4-4-4-4-4--2-3--| 
A-2-2-2-2-2-2--0-1--| 
E-------------------| 



Another Quick, simple tune, listen for order 
		  

See also:

tabs Deep Purple - Black Night tabs Deep Purple - Soldier Of Fortune tabs Deep Purple - Demon's Eye tabs Ira! - Envelheço na Cidade tabs Deep Purple - Smoke on the Water (correct) tabs Ira! - Tarde Vazia (Acústico)
e-chords

Other versions:

tabs Antiseen - Small Town Schizo
auto scroll beats size up size down change color hide chords drawings
tab show chords e-chords YouTube Clip e-chords hide all tabs e-chords go to top tab

share