Antiseen

Self Destruction

Antiseen

tabs

by  EDUCASTILHO

save to print version add songbook text version e-mail correct tuner
chordsukulelecavacokeyboardtabbassdrumsharmonicaflute Guitar Pro
close

there isn't a video lesson for this song

chords

Self Destruction

	  		Intro (bass only) 
G-------------------------------| 
D-0------0----0-0-0-0-0-0-(ETC)-| 
A-------------------------------| 
E-------------------------------| 

(Right into Chorus- no vocals) 
E-------------------------| 
B-------------------------| 
G-7-7-----4-4-4-4-4-4-4-4-| 
D-7-7-5-7-4-4-4-4-4-4-4-4-| 
A-5-5-5-7-2-2-2-2-2-2-2-2-| 
E-----3-5-----------------| 


Verse                 x5            (just before Chorus) 
E-------------------------|------------------------| 
B-------------------------|------------------------| 
G-----------------7---7---|-7----7-7-7-7-7-7-7-7-7-| 
D-5-5-5-5-7-7-7-7-7-7-7-7-|-7-7--7-7-7-7-7-7-7-7-7-| 
A-5-5-5-5-7-7-7-7-5-7-5-7-|-5-7--5-5-5-5-5-5-5-5-5-| 
E-3-3-3-3-5-5-5-5---5---5-|---5--------------------| 


Chorus 
E-------------------------| 
B-------------------------| 
G-7-7-----4-4-4-4-4-4-4-4-| 
D-7-7-5-7-4-4-4-4-4-4-4-4-| 
A-5-5-5-7-2-2-2-2-2-2-2-2-| 
E-----3-5-----------------| 


Outro 
E-------------------------------| 
B-------------------------------| 
G-----7---7---------------------| 
D--5--7---7---------------------| 
A--5--5---5----(ring)-----------| 
E--3----------------------------| 
		  

See also:

tabs Deep Purple - Black Night tabs Deep Purple - Soldier Of Fortune tabs Deep Purple - Demon's Eye tabs Ira! - Envelheço na Cidade tabs Deep Purple - Smoke on the Water (correct) tabs Ira! - Tarde Vazia (Acústico)
e-chords

Other versions:

tabs Antiseen - Self Destruction
auto scroll beats size up size down change color hide chords drawings
tab show chords e-chords YouTube Clip e-chords hide all tabs e-chords go to top tab

share