Antiseen

People Like You

Antiseen

tabs

by  LUCICAMARGO

save to print version add songbook text version e-mail correct tuner
chordsukulelecavacokeyboardtabbassdrumsharmonicaflute Guitar Pro
close

there isn't a video lesson for this song

chords

People Like You

	  		
Intro  
E------------------------------------------------------| 
B------------------------------------------------------| 
G-5--5-----------------------5--5----------------------| 
D-5--5--5--5--7-7/5-7-5-7-7--5--5--5--5--7-7/5-7-5-7-7-| 
A-3--3--5--5--7-7/5-7-5-7-7--3--3--5--5--7-7/5-7-5-7-7-| 
E-------3--3--5-5/3-5-3-5-5--------3--3--5-5/3-5-3-5-5-| 


Verse                                                x4 
E------------------------------------------------------| 
B------------------------------------------------------| 
G-5--5-----------------------5--5----------------------| 
D-5--5--5--5--7-7/5-7-5-7-7--5--5--5--5--7-7/5-7-5-7-7-| 
A-3--3--5--5--7-7/5-7-5-7-7--3--3--5--5--7-7/5-7-5-7-7-| 
E-------3--3--5-5/3-5-3-5-5--------3--3--5-5/3-5-3-5-5-| 


Chorus                                                                 x2 
E------------------------------------------------------------------------| 
B------------------------------------------------------------------------| 
G-5-5-5-5-----------2-2-2-2-2-2-2-2---5-5-5-5-----------2-2-2-2-2-2-2-2--| 
D-5-5-5-5--5-5-5-5--2-2-2-2-2-2-2-2---5-5-5-5--5-5-5-5--2-2-2-2-2-2-2-2--| 
A-3-3-3-3--5-5-5-5--0-0-0-0-0-0-0-0---3-3-3-3--5-5-5-5--0-0-0-0-0-0-0-0--| 
E----------3-3-3-3-----------------------------3-3-3-3-------------------| 


Nothing to it, Verses are played 4 times, Chorus 2 times, so just listen for the order 
		  

See also:

tabs Deep Purple - Black Night tabs Deep Purple - Soldier Of Fortune tabs Deep Purple - Demon's Eye tabs Ira! - Envelheço na Cidade tabs Deep Purple - Smoke on the Water (correct) tabs Ira! - Tarde Vazia (Acústico)
e-chords

Other versions:

tabs Antiseen - People Like You
auto scroll beats size up size down change color hide chords drawings
tab show chords e-chords YouTube Clip e-chords hide all tabs e-chords go to top tab

share