Antiseen

Leeches Losers

Antiseen

tabs

by  VICTBORGES

save to print version add songbook text version e-mail correct tuner
chordsukulelecavacokeyboardtabbassdrumsharmonicaflute Guitar Pro
close

there isn't a video lesson for this song

chords

Leeches Losers

	  		Verse 
E--------------------| 
B--------------------| 
G-4-4-4--7--2--9--7--| 
D-4-4-4--7--2--9--7--| 
A-2-2-2--5--0--7--5--| 
E--------------------| 

Chorus 
E-----------------------------| 
B-----------------------------| 
G-4-4-4--7-7-7--2-2-2--9-9-9--| 
D-4-4-4--7-7-7--2-2-2--9-9-9--| 
A-2-2-2--5-5-5--0-0-0--7-7-7--| 
E-----------------------------| 

Ending 
E-----------------| 
B-----------------| 
G-4-4-4---4-4-4---| 
D-4-4-4---4-4-4---| 
A-2-2-2---2-2-2---| 
E-----------------| 
		  

auto scroll beats size up size down change color hide chords drawings
tab show chords e-chords YouTube Clip e-chords hide all tabs e-chords go to top tab

share