Antiseen

Kick In The Head

Antiseen

tabs

by  AMAN_CLAUDINO

save to print version add songbook text version e-mail correct tuner
chordsukulelecavacokeyboardtabbassdrumsharmonicaflute Guitar Pro
close

there isn't a video lesson for this song

chords

Kick In The Head

	  		Verse  
E---------------| 
B---------------| 
G-9-9-9---6-6-6-| 
D-9-9-9---6-6-6-| 
A-7-7-7---4-4-4-| 
E---------------| 


Chorus          x3 
E-----------------|-----------| 
B-----------------|-----------| 
G-4-4-4-4-2-2-2-2-|-9-9-9-9-9-| 
D-4-4-4-4-2-2-2-2-|-9-9-9-9-9-| 
A-2-2-2-2-0-0-0-0-|-7-7-7-7-7-| 
E-----------------|-----------| 

Just listen for order 
		  

See also:

tabs Deep Purple - Black Night tabs Deep Purple - Soldier Of Fortune tabs Deep Purple - Demon's Eye tabs Ira! - Envelheço na Cidade tabs Deep Purple - Smoke on the Water (correct) tabs Ira! - Tarde Vazia (Acústico)
e-chords

Other versions:

tabs Antiseen - Kick In The Head
auto scroll beats size up size down change color hide chords drawings
tab show chords e-chords YouTube Clip e-chords hide all tabs e-chords go to top tab

share